Did you know ? We offer a chords chart including more than 1000 choard diagrams with photos !

Nothing Else Matters tab

Free Nothing else matters tab for the acoustic guitar. Learn to play Metallica with easy chords for beginners
starSong listed in our famous tablatures
MP3 You must be logged in to listen to Nothing else matters in MP3.

Chords (8)

How to read and play chords for beginners

Chord C (x,3,2,0,1,0)
View chord photo
Chord D (x,x,0,2,3,2)
View chord photo
Chord Dsus2 (x,x,0,2,3,0)
View chord photo
Chord Em (0,2,2,0,0,0)
View chord photo
Chord G (3,2,0,0,3,3)
View chord photo
Chord Am (x,0,2,2,1,0)
View chord photo
Chord B7 (x,2,1,2,0,2)
View chord photo
Chord A (x,0,2,2,2,0)
View chord photo

Strumming patterns

No rhythm pattern for this song yet..
Collection of strumming patterns

 

Tab

How to read a Tab

You must be logged in to use these tools.
(Auto-scroll, metronome, text size)
Chords :
Em : 022000
D  : xx0232
C  : x32010
G  : 320033
B7 : x21202
A  : x02220

Intro :

e|-------0-----|-------0-----|-------0-----|-------0---7-| 
B|-----0---0---|-----0---0---|-----0---0---|-----0---0---| 
G|---0-------0-|---0-------0-|---0-------0-|---0---------| 
D|-------------|-------------|-------------|-------------| 
A|-------------|-------------|-------------|-------------| 
E|-0-----------|-0-----------|-0-----------|-0-----------| 


e|-7-----------7p0---------|---------7---8---7h8\5-|--7-5h3\2-----| 
B|-----0-----------0-------|---------0---0---------|--0-------5---| 
G|---------0-----------0---|-----0-----------------|--------------| 
D|-------------------------|-----------------------|--------------| 
A|-------------------------|-----------------------|--------------| 
E|-0-----------------------|-0---------------------|--------------| 
 

e|-------------2p0---------|-------------0---0---0---| 
B|-5-------5-------5-------|---------5-------5---5---| 
G|-----5---------------5---|-----5-----------5---5---| 
D|-------------------------|-------------------------| 
A|-0-----------------------|-0---------------0---2---| 
E|-------------------------|-------------------------| 
 

e|-0-----------3p0-----0---|-0-----------0h5p0--------| 
B|-5-------5-------5---5---|-7-------7---------7p0-0h5| 
G|-5-----5---5-------5-5---|-7-----7---7--------------| 
D|-------------------------|--------------------------| 
A|-3---3---------------3---|-5---5--------------------| 
E|-------------------------|--------------------------| 

     NH---| 
e|-------12----|-------0-----|-------0-----|-------0-----| 
B|-----12--0---|-----0---0---|-----0---0---|-----0---0---| 
G|---12------0-|---0-------0-|---0-------0-|---0-------0-| 
D|-------------|-------------|-------------|-------------| 
A|-------------|-------------|-------------|-------------| 
E|-0-----------|-0-----------|-0-----------|-0-----------| 


e|-------------7-----------|-------------|-------------7-----------| 
B|-------------8-----------|-----7-----5-|-------------8-----------| 
G|-----------9-------------|-----7-----5-|-----------9-------------| 
D|---------9---------------|---7-----5---|---------9---------------| 
A|-------7-----------------|-5-----3-----|-------7-----------------| 
E|-0-----------------------|-------------|-0-----------------------| 

e|-------------|-------------7-----------|-----5-----------3-------| 
B|-----7-----5-|-------------8-----------|-------7-----------5-----| 
G|-----7-----5-|---------9---------------|---------7-----------5---| 
D|---7-----5---|-----------9-------------|-----7-----------5-------| 
A|-5-----3-----|-------7-----------------|-5-----------3-----------| 
E|-------------|-0-----------------------|-------------------------| 

e|-----3-----------2-------|-------0-----|-------0-----| 
B|-------3-----------4-----|-----0---0---|-----0---0---| 
G|---------4-----------2---|---0-------0-|---0-------0-| 
D|-----5-----------4-------|-------------|-------------| 
A|-------------2-----------|-------------|-------------| 
E|-3-----------------------|-0-----------|-0-----------|


Verses (arpeggios):

e||-------------3-----0-----|-2-----3-----0-----------|| 
B||---------0-----------0---|---------3-------3-------|| 
G||-----0-----------0-----0-|-----------0-------0-----||  x2
D||-------------------------|-0-----------------------|| 
A||-------------------------|-------------3-----------|| 
E||-0-----------------------|---------------------3-2-|| 

e|-------------3-----0-----|-2-----3-----3-----------| 
B|---------0-----------0---|---------3-------3-------| 
G|-----0-----------0-----0-|-----------0---------0---| 
D|-------------------------|-0--0--------------------| 
A|-------------------------|-------------3-----------| 
E|-0-----------------------|-------------------------| 

e|---------3---2-------2---|-0-----0-----|-------------0-----------| 
B|---------3---0---------0-|-----0---0---|---------0-------0-------| 
G|-----0-------2-----------|---0-------0-|-----0-------------------| 
D|-------------------------|-------------|-------------------------| 
A|-------------2-----2-----|-------------|-------------------------| 
E|-3-----------------------|-0-----------|-0-------------------3-2-|


1st verse : 
Em Em                  D D  -  C C    -
 So close no matter how far
Em Em                     D D    -      C C   -
 Couldn't be much more from the heart 
Em Em                D D   -    C C    -
 Forever trusting who we are 
G G -  B7 B7 -         Em Em       Em Em
 And nothing else matters 



2nd verse :
Em Em              D D   -      C C    -
 Never opened myself this way 
Em Em                        D D  -   C C    -
 Life is ours, we live it our way 
Em Em                       D D  -    C C    -
 All these words I don't just say 
G G -  B7 B7 -         Em Em         Em Em
 And nothing else matters 

3rd verse :
Em Em                D D   -      C C    -
 Trust I seek and find in you 
Em Em                D D   -      C C    -
 Every day for us something new 
Em Em               D D   -      C C    -
 Open mind for a different view 
G G -  B7 B7 -         Em Em      C CA A -
 And nothing else matters

Chorus :
D D                          C C -  A A -
 Never cared for what they do 
D D                          C C -  A A -
 Never cared for what they know 
D D      Em Em
 But I know 


4th verse : 
Em Em                  D D  -  C C    -
 So close no matter how far
Em Em                     D D    -      C C   -
 Couldn't be much more from the heart 
Em Em                D D   -    C C    -
 Forever trusting who we are 
G G -  B7 B7 -         Em Em       Em Em
 And nothing else matters


Solo :
  Em Em                             Am Am                                                          
|-12------14---|-15-------17---|-8------8------|-------8--------| 
|---12------12-|---12-------12-|---5------5----|----5-----5-----| 
|--------------|---------------|-----5------5--|-5----------5\--| 
|--------------|---------------|---------------|----------------| 
|--------------|---------------|---------------|----------------| 
|--------------|---------------|---------------|----------------| 

  C C              Dsus2 Dsus2           Em Em
|-0--------0---|-0--------0----|-0--7--7-0-----|--------0-------| 
|----1-------1-|----3-------3--|-----0------0--|------0---------| 
|-------0------|-------2-------|------0-------0|----0-----------| 
|--------------|---------------|---------------|----------------| 
|--------------|---------------|---------------|----------------| 
|--------------|---------------|---------------|-0--------------| 

  Em Em                             Am Am                                                          
|-12------14---|-15-------17---|-8------8------|-------8--------| 
|---12------12-|---12-------12-|---5------5----|----5-----5-----| 
|--------------|---------------|-----5------5--|-5----------5\--| 
|--------------|---------------|---------------|----------------| 
|--------------|---------------|---------------|----------------| 
|--------------|---------------|---------------|----------------| 

  C C              Dsus2 Dsus2           Em Em
|-0------0-----|-0------0------|-0-7----7-0----|--------0-------| 
|---1------1---|---3------3----|----0-------0--|------0---0-----| 
|-----2--------|-----2---------|-------0------0|----0-----------| 
|--------------|---------------|---------------|----------------| 
|--------------|---------------|---------------|----------------| 
|--------------|---------------|---------------|-0----------3-2-|
               |
             G G |               full
             U |-------------------|----------------|-------------------------------| 
             I |-------------------|----12---12-----|-15--15--15--------------------|
             T |-12-12h14--12h14^v-|-12-------------|-14--15--14^v-p12-----------12-| 
             A |-------------------|------------14--|------------------14--12h14----| 
             R |-------------------|----------------|-------------------------------| 
             2 |-------------------|----------------|-------------------------------|

5th verse :
Em Em                D D   -      C C    -
 I Never opened myself this way 
Em Em                        D D  -   C C    -
 Life is ours, we live it our way 
Em Em                       D D  -    C C    -
 All these words I don't just say 
G G -  B7 B7 -         Em Em         Em Em
 And nothing else matters 

6th verse :
Em Em                D D   -      C C    -
 Trust I seek and find in you 
Em Em                D D   -      C C    -
 Every day for us something new 
Em Em               D D   -      C C    -
 Open mind for a different view 
G G -  B7 B7 -         Em Em      C CA A -
 And nothing else matters



Chorus :
D D                          C C -  A A -
 Never cared for what they say 
D D                          C C -  A A -
 Never cared for games they play 
D D                          C C -  A A -
 Never cared for what they do 
D D                          C C -  A A -
 Never cared for what they know 
D D      Em Em
 But I know



Solo 2 :
[Em Em] [D D-C C][Em Em][D D-C C]
[Em Em][D D-C C][G G-B B][Em Em]>let ring


7th verse : 
Em Em                  D D  -  C C    -
 So close no matter how far
Em Em                     D D    -      C C   -
 Couldn't be much more from the heart 
Em Em                D D   -    C C    -
 Forever trusting who we are 
G G -  B7 B7 -         Em Em*
 And nothing else matters


   Em Em*
e|-0-----0-----|-------0---7-| 
B|-----0---0---|-----0---0---| 
G|---0-------0-|---0---------| 
D|-------------|-------------| 
A|-------------|-------------| 
E|-0-----------|-0-----------|


Outro:

e|-7--------7p0-------|--------7--8--7h8\5-|-7-5h3--0----|-0-----0-----|-------0---7-|
B|----0---------0-----|--------0--0--------|-0-----------|-----0---0---|-----0---0---|
G|-------0---------0--|----0---------------|-------------|---0-------0-|---0---------|
D|--------------------|--------------------|-------------|-------------|-------------|
A|--------------------|--------------------|-------------|-------------|-------------|
E|-0------------------|-0------------------|-------------|-0-----------|-0-----------|

Video Clip

Member Area
Music is the wine that fills the cup of silence
(Robert Fripp)
W3C
(c) 2000-2014 tabs4acoustic.com
Rescue T4A, kill an ad!