Did you know ? We offer a chords chart including more than 1000 choard diagrams with photos !

She Talks To Angels tab

Adaptation in EADGBe (Original tuning : Open E).

Chords (4)

How to read and play chords for beginners

Chord E (0,2,2,1,0,0)
View chord photo
Chord Esus4 (0,2,2,2,0,0)
View chord photo
Chord B (x,2,4,4,4,2)
View chord photo
Chord A (x,0,2,2,2,0)
View chord photo

Strumming patterns

No rhythm pattern for this song yet..
Collection of strumming patterns

 

Tab

How to read a Tab

You must be logged in to use these tools.
(Auto-scroll, metronome, text size)
Intro :

e|---------0-------------0--------0--------------0-----|
B|---4/5-----5-4-------0---0-----0-0-------------0-----|
G|---------------6--4----------------------------1-----|
D|---------------------------6h7~~-------7p6-----2-----|  x2
A|-------------------------------------------7---2-----|
E|-----------------------------------------------0-----|

e|--0-0-0---0--0-00-0-0-0-0~-----------|------X----<7>------|
B|--0-0-0---0--0-00-0-0-0-0~-----------|-----<5>---<7>------|
G|--1-1-1---1--1-11-2-1-2-1~-----------|-----<5>---<7>------|
D|--2-2-2---2--2-22-2-2-2-2~-----------|-----<5>----x-------|
A|--2-2-2---2--2-22-2-2-2-2~-----------|--------------------|
E|--0-0-0---0--0-00-0-0-0-0~-----------|--------------------|


e|--0-00-0-0-0-0~-------|---------------------------------------|
B|--0-00-0-0-0-0~-------|-------------0-----2--------0----------|
G|--1-11-2-1-2-1~-------|---------------1-----1-----------------|
D|--2-22-2-2-2-2~-------|---2h4-4---------2-----2--2---4---2----|
A|--2-22-2-2-2-2~-------|---------------------------------------|
E|--0-00-0-0-0-0~-------|---------------------------------------|


e|--0-00-0-0-0-0~-------|---0-0--0--0--0--0--0------------|
B|--0-00-0-0-0-0~-------|----5--4-------------------------|
G|--1-11-2-1-2-1~-------|---------6--4--2--1-----1--------|
D|--2-22-2-2-2-2~-------|----------------------2----4--2--|
A|--2-22-2-2-2-2~-------|---------------------------------|
E|--0-00-0-0-0-0~-------|---------------------------------|


    E E              (Esus4 Esus4) E E>let ring
e|--0-0-0---0--0-00-0-0-0-0~----------|
B|--0-0-0---0--0-00-0-0-0-0~----------|
G|--1-1-1---1--1-11-2-1-2-1~----------|
D|--2-2-2---2--2-22-2-2-2-2~----------| 
A|--2-2-2---2--2-22-2-2-2-2~----------|
E|--0-0-0---0--0-00-0-0-0-0~----------|


1st verse :
                               E E       (Esus4 Esus4) E E>let ring
She never mentions the word addiction
             E E    (Esus4 Esus4) E E>let ring
In certain company
                              E E      (Esus4 Esus4) E E>let ring
Yes, she'll tell you she's an orphan
                    E E     (Esus4 Esus4)  E E
After you meet her family


[B B][A A][E E][E E]
[B B][A A][E E][E E]>let ring
[E E][E E]>let ring

2nd verse :
                                E E       (Esus4 Esus4) E E>let ring
She paints her eyes as black as night now
                    E E       (Esus4 Esus4) E E>let ring
Pulls those shades down tight
                                E E        (Esus4 Esus4) E E>let ring
Yeah she gives a smile when the pain comes
                                E E    (Esus4 Esus4) E E
The pain gonna make everything alright


Chorus :
                  B B      A A  
Says she talks to angels
                  E E          (Esus4 Esus4) E E
They call her out by her name
                      B B       A A  
Oh yeah, she talks to angels
                       E E     (Esus4 Esus4)  E E>let ring
Says they call her out by her name

[E E][E E]>let ring


3rd verse :
                                E E     (Esus4 Esus4) E E>let ring
she keeps a lock of hair in her pocket
                      E E          (Esus4 Esus4) E E>let ring
She wears a cross around her neck
                       E E          (Esus4 Esus4) E E>let ring
Yes the hair is from a little boy
                              E E         (Esus4 Esus4) E E
And the cross is someone she has not met    not yet



Chorus :
                  B B      A A  
Says she talks to angels
               E E          (Esus4 Esus4) E E
Says they all know her name
                      B B       A A  
Oh yeah, she talks to angels
                       E E     (Esus4 Esus4)  E E
Says they call her out by her name


Bridge :
A A                  E E                
 She don't know no lover
A A                 E E                
 None that I ever see
A A                      E E                
 yet to her that ain't nothing
         A A>PM      A A>PM        E E>let ring    (E E)           
but to me it means, means everything


e|--0-00-0-0-0-0~-------|---------------------------------------|
B|--0-00-0-0-0-0~-------|-------------0-----2--------0----------|
G|--1-11-2-1-2-1~-------|---------------1-----1-----------------|
D|--2-22-2-2-2-2~-------|---2h4-4---------2-----2--2---4---2----|
A|--2-22-2-2-2-2~-------|---------------------------------------|
E|--0-00-0-0-0-0~-------|---------------------------------------|


e|--0-00-0-0-0-0~----|---0-0--0--0--0--0--0------------|--0-00-0-0-0-0~---|
B|--0-00-0-0-0-0~----|----5--4-------------------------|--0-00-0-0-0-0~---|
G|--1-11-2-1-2-1~----|---------6--4--2--1-----1--------|--1-11-2-1-2-1~---|
D|--2-22-2-2-2-2~----|----------------------2----4--2--|--2-22-2-2-2-2~---|
A|--2-22-2-2-2-2~----|---------------------------------|--2-22-2-2-2-2~---|
E|--0-00-0-0-0-0~----|---------------------------------|--0-00-0-0-0-0~---|



4th verse :
                                E E       (Esus4 Esus4) E E>let ring
She paints her eyes as black as night now
                    E E       (Esus4 Esus4) E E>let ring
Pulls those shades down tight
                                E E        (Esus4 Esus4) E E>let ring
Yeah she gives a smile when the pain comes
                                E E    (Esus4 Esus4) E E
The pain gonna make everything alright, alright yeah !


Chorus :
                  B B      A A  
Says she talks to angels
                  E E          (Esus4 Esus4) E E
They call her out by her name
           B B       A A  
Oh yeah, an___gels
             E E     (Esus4 Esus4)  E E
Call her out by her name
       B B       A A  
Ooooh, angels
             E E        (Esus4 Esus4)  E E
Call her out by her name
                B B       A A  
Oh she talks to angels
             B B      A A
Call her out, yeah
             B B       A A  
Call her out 
             E E     (Esus4 Esus4)  E E>let ring
Call her out by her name

Video Clip

Member Area
A painter paints pictures on canvas. Musicians paint their pictures on silence.
(Leopold Stokowski)
W3C
(c) 2000-2014 tabs4acoustic.com
Rescue T4A, kill an ad!