Vous aimez T4A ? Parlez-en à vos amis, envoyez-leur notre adresse !

Two Hands Of A Prayer tab

Tablature gratuite Two hands of a prayer pour guitare acoustique. Partition Ben Harper avec accords pour débutant

Accords (4)

Comment lire et jouer les accords

Accord C (x,3,2,0,1,0)
Voir photo de l'accord
Accord D (x,x,0,2,3,2)
Voir photo de l'accord
Accord Em (0,2,2,0,0,0)
Voir photo de l'accord
Accord Am (x,0,2,2,1,0)
Voir photo de l'accord

Rythmiques

Il n'y a pas encore de battements d'acccords pour cette chanson..

Quelle rythmique pour jouer cette chanson ?
Collection de rythmiques

 

Tablature

Comment lire une Tablature

Vous devez être connecté pour utiliser ces outils.
(défilement automatique, métronome, taille du texte)
Intro (and verses):
         Em Em                  D D                           x3
e |---||------------------------|---2---2-3-2------------||
B |---||------0-0-0-0-1-0-------|---3---3-3-3------------||
G |---||------0-0-0-0-0-0-------|---2---2-2-2------------||
D |---||------2-2-2-2------x-0--|------------------------||
A |-2-||-------------------x----|---------------------2--||
E |---||-0----------------------|------------------------||

    Em Em                         D D
e |------------------------|---2--2-3-2-------------|
B |------0-0-0-0-1-0-------|---3--3-3-3-------------|
G |------0-0-0-0-0-0-------|---2--2-2-2-------------|
D |------2-2-2-2------x-0--|-------------0-0-5h7----|
A |-------------------x----|---------------------0--|
E |-0----------------------|------------------------|

     Am Am                       Em Em
e |------------------------|------------------------|
B |---1---1-3-1------------|---0---0-1-0------------|
G |---2---2-2-2------------|---0---0-0-0------------|
D |---2---2-2-2------------|---2---2-2-2------------|
A |--------------0-0-5h7---|---2-----------------2--|
E |----------------------0-|------------------------|


1st verse: 
Em Em                D D               Em Em                 D D
First time that I saw her she had white doves in her eyes
    Em Em              D D           Am Am         Em Em
She spoke to me but I could not reply, not reply
Em Em        D D          Em Em            D D
She was a stranger I had known for years
    Em Em               D D           Am Am           Em Em
She brought to me so many smiles and tears, smiles and tears



Pre-chorus:
           Em Em                  x3  Em Em       D D     
e |-----||----------------------||----------2-|
B |-0-0-||-0~---0-1-0-3-3-1-0-0-||-0~~---0--3-|
G |-0-0-||-0~---------------0-0-||-0~~---0--2-|
D |-2-2-||-2~---------------2-2-||-2~~---2--0-|
A |-2-2-||-2~---------------2-2-||-2~~---2----|
E |-0-0-||-0~---------------0-0-||-0~~---0----|




Chorus :
    C C              D D
The two hands of a prayer, 
                  D D -  C C          D D
Together like the two  hands of a prayer
                  D D -  C C          D D
Together like the two  hands of a prayer
                  D D -  C C          D D       D D
Together like the two  hands of a prayer



e |--------------------------------------------------------------2-2-3-2-|
B |--------------------------------------------------------------3-3-3-3-|
G |-2/4-2-0h2p0---------0h2--0h2p0------------0h2-0h2p0-------2--2-2-2-2-|
D |--------------0--0h2-------------2--2--0h2------------4-2--0--0-0-0-0-|
A |------------------------------------2---------------------------------|
E |------------------------------------0---------------------------------|

   Em Em                  D D                           
e |--------------------------|---2---2-3-2------------|
B |--------0-0-0-0-1-0-------|---3---3-3-3------------|
G |--------0-0-0-0-0-0-------|---2---2-2-2------------|
D |--------2-2-2-2------x-0--|------------------------|
A |-2-------------------x----|---------------------2--|
E |---0----------------------|------------------------|



2nd verse:
 Em Em               D D                Em Em            D D
Tired maid slowly drifts into the past, into the past
    Em Em                 D D         Am Am            Em Em
And finds a home where all echoes rest, echoes rest
Em Em         D D          Em Em      D D
She softly kissed my mind, my mind, 
    Em Em             D D                Am Am           Em Em
And whispered what will we do with time, do with time



Pre-chorus:
           Em Em                  x3  Em Em       D D     
e |-----||----------------------||----------2-|
B |-0-0-||-0~---0-1-0-3-3-1-0-0-||-0~~---0--3-|
G |-0-0-||-0~---------------0-0-||-0~~---0--2-|
D |-2-2-||-2~---------------2-2-||-2~~---2--0-|
A |-2-2-||-2~---------------2-2-||-2~~---2----|
E |-0-0-||-0~---------------0-0-||-0~~---0----|



Chorus :
    C C              D D
The two hands of a prayer, 
                  D D -  C C          D D
Together like the two  hands of a prayer
                  D D -  C C          D D
Together like the two  hands of a prayer
                  D D -  C C          D D       D D
Together like the two  hands of a prayer
Bridge :
                                       Em Em                          x7
e |----------------------------------------||----------------------||
B |------------------------------------0-0-||-0~---0-1-0-3-3-1-0-0-||
G |-2/4-2-0h2p0---------0h2--0h2p0-----0-0-||-0~---------------0-0-||
D |--------------0--0h2----------------2-2-||-2~---------------2-2-||
A |------------------------------------2-2-||-2~---------------2-2-||
E |------------------------------------2-2-||-2~---------------2-2-||
 
    Em Em       D D   C C                D D
e |----------2-|------------------2~----3-3-3--2-2-2--0-0-0--2-2-2--2-3-2-|
B |-0~~---0--3-|-1~---1~---1-1----3~----3-3-3--3-3-3--3-3-3--3-3-3--3-3-3-|
G |-0~~---0--2-|-0~---0~---0-0-x--2~----2-2-2--2-2-2--2-2-2--2-2-2--2-2-2-|
D |-2~~---2--0-|-2~---2~---2-2-x------------------------------------------|
A |-2~~---2----|-3~---3~---3-3-x------------------------------------------|
E |-0~~---0----|----------------------------------------------------------|


[D D][D D]


e |--------------------------------------------------------------2-2-3-2-|
B |--------------------------------------------------------------3-3-3-3-|
G |-2/4-2-0h2p0---------0h2--0h2p0------------0h2-0h2p0-------2--2-2-2-2-|
D |--------------0--0h2-------------2--2--0h2------------4-2--0--0-0-0-0-|
A |------------------------------------2---------------------------------|
E |------------------------------------0---------------------------------|

   Em Em                     D D                          
e |--------------------------|---2---2-3-2------------|
B |--------0-0-0-0-1-0-------|---3---3-3-3------------|
G |--------0-0-0-0-0-0-------|---2---2-2-2------------|
D |--------2-2-2-2------x-0--|------------------------|
A |-2-------------------x----|---------------------2--|
E |---0----------------------|------------------------|



3rd verse:
   Em Em          D D                Em Em            D D
Am Am I the man I choose, chose to be, choose to be
   Em Em           D D         Am Am          Em Em
Or just the man I used to be, used to be
   Em Em          D D             Em Em            D D
Am Am I the man I want, want to be, I want to be
     Em Em                 D D        Am Am           Em Em
This question, it keeps haunting me, haunting me



Pre-chorus:
          Em Em                  x3  Em Em       D D     
e|-----||----------------------||----------2-|
B|-0-0-||-0~---0-1-0-3-3-1-0-0-||-0~~---0--3-|
G|-0-0-||-0~---------------0-0-||-0~~---0--2-|
D|-2-2-||-2~---------------2-2-||-2~~---2--0-|
A|-2-2-||-2~---------------2-2-||-2~~---2----|
E|-0-0-||-0~---------------0-0-||-0~~---0----|





Chorus :
    C C              D D
The two hands of a prayer, 
                  D D -  C C          D D
Together like the two  hands of a prayer
                  D D -  C C          D D
Together like the two  hands of a prayer
                  D D -  C C          D D            D D
Together like the two  hands of a prayer, of a prayer



Outro:
                                       Em Em                         x3 
e |----------------------------------------||----------------------||-----|
B |------------------------------------0-0-||-0~---0-1-0-3-3-1-0-0-||-0~~-|
G |-2/4-2-0h2p0---------0h2--0h2p0-----0-0-||-0~---------------0-0-||-0~~-|
D |--------------0--0h2----------------2-2-||-2~---------------2-2-||-2~~-|
A |------------------------------------2-2-||-2~---------------2-2-||-2~~-|
E |------------------------------------2-2-||-2~---------------2-2-||-2~~-|

Video Clip

Commentaires

Espace Membre
Il y a des gens qui font des bébés en écoutant ma musique. C'est cool.
(Barry White)
W3C
(c) 2000-2014 tabs4acoustic.com
Sauvez T4A, tuez une pub !