Aller au contenu
hard2concentrate

[3 Doors Down] Kryptonite

Messages recommandés

J'ai l'intro qui va comme suit

-----------------------------------0----------------------
-------3-------------------------0--0-------------------------
-----4--4--4---------2--------2-----0----------------------
---4-----4--------2----------2-------------------------
-2-------------3-----------0--------------
----------------------------------------------------

 

mais le reste, pour jouer sur *UNE* seule guitare, je trouve pas...


RHCP rock.

Partager ce message


Lien à poster
Partager sur d’autres sites

Vla entiere ^^

 

Repeat - 3x Bm    G  Asus2
e|-------------------------------------------------------------------------|
B|--------------3------------------------------------------------------0---|
G|*---------4--------4---------0----------------0----------------2--------*|
D|*-----4-----------------4----------------0---------------2--------------*|
A|---2--------------------------------2--------------0---------------------|
E|-------------------------------3-----------------------------------------|

          Bm           G  A/D
e|---------------------------------------------------------0---------------|
B|--------------3------------------------------------------------2---------|
G|----------4--------4---------0------------------0--------------------2---|
D|------4-----------------4-----------------0------------------------------|
A|---2---------------------------------2---------------0-------------------|
E|--------------------------------3----------------------------------------|

 Guitar 1 (Clean)
     Bm          Bm           G         Asus2
e|---2--2--x--x--2--2--x--x--3--3--x--x--0--0--x--x---|
B|---3--3--x--x--3--3--x--x--3--3--x--x--0--0--x--x---|
G|---4--4--x--x--4--4--x--x--0--0--x--x--2--2--x--x---|
D|---4--4--x--x--4--4--x--x--0--0--x--x--2--2--x--x---|
A|---2--2--x--x--2--2--x--x--2--2--x--x--0--0--x--x---|
E|---2--2--x--x--2--2--x--x--3--3--x--x--0--0--x--x---|

Chorus -

 Guitar 1 & 2 (Distorted)
  B5                     G5              A5
e|-------------------------------------------------------------------|
B|-------------------------------------------------------------------|
G|---4-4-4---4-4-4---4-4-4---4-4-4-------------------2-2-2---2-2-2---|
D|---4-4-4---4-4-4---4-4-4---4-4-4---5-5-5---5-5-5---2-2-2---2-2-2---|
A|---2-2-2---2-2-2---2-2-2---2-2-2---5-5-5---5-5-5---0-0-0---0-0-0---|
E|-----------------------------------3-3-3---3-3-3-------------------|
    If  I  go  crazy  then  will  you  still  Call  me  Superman

                  B5                     E5              F#5
e|-------------------------------------------------------------------|
B|-------------------------------------------------------------------|
G|---4-4-4---4-4-4---4-4-4---4-4-4-----------------------------------|
D|---4-4-4---4-4-4---4-4-4---4-4-4---2-2-2---2-2-2---4-4-4---4-4-4---|
A|---2-2-2---2-2-2---2-2-2---2-2-2---2-2-2---2-2-2---4-4-4---4-4-4---|
E|-----------------------------------0-0-0---0-0-0---2-2-2---2-2-2---|
    If I’m alive and well,  will you be There holding my hand

  B5                     G5              A5
e|-------------------------------------------------------------------|
B|-------------------------------------------------------------------|
G|---4-4-4---4-4-4---4-4-4---4-4-4-------------------2-2-2---2-2-2---|
D|---4-4-4---4-4-4---4-4-4---4-4-4---5-5-5---5-5-5---2-2-2---2-2-2---|
A|---2-2-2---2-2-2---2-2-2---2-2-2---5-5-5---5-5-5---0-0-0---0-0-0---|
E|-----------------------------------3-3-3---3-3-3-------------------|
    I’ll  keep  you  by  my  side  with  My  superhuman  might

                  B5                     E5              F#5
e|-------------------------------------------------------------------|
B|-------------------------------------------------------------------|
G|---4-4-4---4-4-4---4-4-4---4-4-4-----------------------------------|
D|---4-4-4---4-4-4---4-4-4---4-4-4---2-2-2---2-2-2---4-4-4---4-4-4---|
A|---2-2-2---2-2-2---2-2-2---2-2-2---2-2-2---2-2-2---4-4-4---4-4-4---|
E|-----------------------------------0-0-0---0-0-0---2-2-2---2-2-2---|
      Kryptonite

Guitar 1 (Distorted)
e|---------------------------------------------------|
B|---------------------------------------------------|
G|*--------------------------------------------------|
D|*--------------------------------------------------|
A|---2---4---5---4---5---4---7---5---4---5---4---5---|
E|---------------------------------------------------|

e|------------------------------------------------------|
B|------------------------------------------------------|
G|-----------------------------------------------------*|
D|-----------------------------------------------------*|
A|---2---0---2---0---2---0------------------------------|
E|---------------------------0--0--0--000--2--2--2--222-|


slash2signaturezx4.jpg

Without you, there is no meaning to my life

You're gone and it cuts me like a knife

How could you leave me?

Partager ce message


Lien à poster
Partager sur d’autres sites

Veuillez vous connecter pour commenter

Vous pourrez laisser un commentaire après vous êtes connecté.



Connectez-vous maintenant

×
×
  • Créer...