Aller au contenu

[Alanis Morissette] Hands clean


Messages recommandés

Riff1 (Intro / verse) :
 Caad9  Dsus2   D/B   Cadd9
e------------------------0-----
B-----3----3---------3-----3---
G---0--------2-----0-----------
D-------0----------------------
A-3--------------2-----3-------
E------------------------------
 Cadd9 Dsus2    D/B   Cadd9

[intro] (Riff1)
Cadd9   Dsus2   D/B   Cadd9 

[Verse1]
Cadd9             Dsus2         D/B                     Cadd9
If it weren't for your maturity none of this would have happened___
Cadd9             Dsus2                  D/B                     Cadd9
If you weren't so wise beyond your years I would've been able to control myself
Cadd9 (drums)     Dsus2        D/B                    Cadd9 
If it weren't for my attention you wouldn't have been successful and if
Cadd9             Dsus2                   D/B              Cadd9
If it weren't for me you would never have amounted to very much

Lead1 (clean guitar)
e-12~-12~-14~-14~-10~-10~-12~-12~-
B---------------------------------
G---------------------------------
D---------------------------------
A---------------------------------
E---------------------------------

Lead2 (distortion guitar)
e-9p7-9p7----------9p7-9p7-10~~---9p7-9p7----------9p7-9p7-10~~--
B---------8~~----------------------------------------------------
G----------------------------------------------------------------
D----------------------------------------------------------------
A----------------------------------------------------------------
E----------------------------------------------------------------

[Pre-chorus] (Lead1, Lead2)
Cadd9      Dsus2        D/B        Cadd9 
  Oo______ooh____ this could_ be_ mes__sy___  but
Cadd9      Dsus2         D/B       Cadd9 
  You_________ don't__  seem_ to_ mi_____ind
Cadd9      Dsus2         D/B           Cadd9 
  Ooh_________ don't go telling_ everybody__  and
Cadd9      Dsus2          D/B   Cadd9    ///
  O___ver_look__ this supposed crime___

Lead3 (Chorus)
e-7~-7~-5~-5~-7~-7~-7/9-9~-
B--------------------------
G--------------------------
D--------------------------
A--------------------------
E--------------------------

[Chorus] (Lead3)
C5      D5                B5          C5
 We'll fast forward to a few_ years_ la_ter__
C5           D5               B5        C5
 And no one knows except the both_ of_ us___
C5           D5           B5            C5
 And I have honored your request_ for_ silence__
     C5       D5            B5           C5
 And you__'ve washed_ your_ hands_ clean of this__

[Verse]
Cadd9                Dsus2             D/B                Cadd9
 You're essentially an employee and I like you having to depend on me
Cadd9             Dsus2
 You're kind of my protégé
        D/B                Cadd9
and one day you'll say you learned all you know from me  and
Cadd9        Dsus2               D/B                    Cadd9
 I know you depend on me like a young thing would to a guardian
Cadd9        Dsus2               D/B               Cadd9
 I know you sexualize me like a young thing but I think you

 

 

ou

 

 

Intro/Verse

  C           D       Bm         =20
E----------------------------------0--------------------------------
B--------1--------2~~--------3--------3~~---------------------------
G-----------0-------------------4-----------------------------------
D-----2--------0----------4-----------------------------------------
A--3-------------------2--------------------------------------------
E-------------------------------------------------------------------

Explanation of tab:
~~ Let Ring


Chorus: Strummed=20

C   D       Bm       C
Oh--Oh this Could be Messy   [etc]

Bridge: Strummed

Em               C               G                    D
What Part of our history is rein-vented and under rug swept [etc]

Chords:

    C     D    Bm    Em   G
E----0-----2----2-----0----3----------------------------------------
B----1-----3----3-----0----3----------------------------------------
G----0-----2----4-----0----0----------------------------------------
D----2-----0----4-----2----0----------------------------------------
A----3-----x----2-----2----2----------------------------------------
E----X-----x----2-----0----3----------------------------------------

Lien à poster
Partager sur d’autres sites
  • 3 months later...

salut ,peut importe la taille des didis, t'en fais po!

observe autour de toi, les guitaristes on parfois des sacres gros doigts et ça gratte bien quand meme va!

c'est vrai que ça gene surtout quand on débute moi le 1er...le plus difficile au debut c'est tout simplement de ne po se decourager, alors VAS Y MON GARS!!!!!!!!! :top::guitare:

Lien à poster
Partager sur d’autres sites

Veuillez vous connecter pour commenter

Vous pourrez laisser un commentaire après vous êtes connecté.



Connectez-vous maintenant
×
×
  • Créer...