Aller au contenu

Annulaire pliable


Messages recommandés

Salut a tous, alors voila j'ai un petit souci avec ma main gauche.

Pour faire un Do en 3ème case, je n'arrive pas à cambrer mon annulaire pour qu'il touche exactement les 3 cordes tt en laissant sonner le mi. Vous allez me dire qu'on peut le faire en mettant les 3 doigts sur les dites-cordes mais j'ai beaucoup de mal à l'enchainer de cette manière.

or quelqu'un m'a dit(carla bruni) que faire ce truc avec l'annulaire certains y arrivent naturellement et d'autres pas, alors je voulais savoir si vous vous y arrivez facilement ou pas et si ca sert à quelque chose de s'entrainer à le plier??

Lien à poster
Partager sur d’autres sites

bien sur bien sur,pour faire un Do en barré tu fais ca --->

 

E||---|---|-1-|---|----|---|---|---|---|---|---|---
B||---|---|-1-|---|-4-|---|---|---|---|---|---|---
G||---|---|-1-|---|-3-|---|---|---|---|---|---|--- 
D||---|---|-1-|---|-2-|---|---|---|---|---|---|---
A||---|---|-1-|---|----|---|---|---|---|---|---|---
E||---|---|-1-|---|----|---|---|---|---|---|---|---

 

mais j'arrive po bien à l'enchainer et on m'a montré comment le faire avec deux doigts: en fait tu fais un barré normal avec ton index et avec l'annulaire tu fais un mini barré sur les cordes ré sol et si --->

 

E||---|---|-1-|---|----|---|---|---|---|---|---|---
B||---|---|-1-|---|-3-|---|---|---|---|---|---|---
G||---|---|-1-|---|-3-|---|---|---|---|---|---|--- 
D||---|---|-1-|---|-3-|---|---|---|---|---|---|---
A||---|---|-1-|---|----|---|---|---|---|---|---|---
E||---|---|-1-|---|----|---|---|---|---|---|---|---

 

mais le problème c'est d'arriver à plier le doigt pour qu'il touche pas la dernière corde, et c'est la que je bloque j'ai beau lui faire faire de la gym il ne se plie pas bien. donc je voulais savoir si j'y arriverais un jour snirff snif:

Lien à poster
Partager sur d’autres sites

perso je fais comme ca :

 

E||---|---|-1-|---|----|---|---|---|---|---|---|---
B||---|---|-1-|---|-3-|---|---|---|---|---|---|---
G||---|---|-1-|---|-3-|---|---|---|---|---|---|---
D||---|---|-1-|---|-3-|---|---|---|---|---|---|---
A||---|---|-1-|---|----|---|---|---|---|---|---|---
E||---|---|-1-|---|----|---|---|---|---|---|---|---

 

mais c'est vrai qu'il faut pouvoir plier son annuaire un minimum pour ne pas toucher la corde de Mi

Après ca dépend de la morphologie, ou de l'entrainement ^^ il faut que tu trouve la méthode qui te convient le mieux

Lien à poster
Partager sur d’autres sites

ben perso j'ai toujour fait ce genre de barré sans faire une 2eme barré avec l'annulaire (donc avec la majeur/annulaire/petit doigt sur les 3 case)

je me sens beaucoup plus a l'aise de cette facon , et tu doit aussi trouver la bonne maniere , celle qui te convient le mieux...en gros ce n'est pas obligatoire du tous du tous de faire un barré avec ton annulaire!

 

Mais cependant , faire un barré avec l'annulaire a pour avantage de pouvoir laisé le majeur et le petit doigt libre , donc meme en fesant cet accord (do barré) tu peux utilisée les 2doigt restant pour appuyé sur d'autre frette (pour resumé , ca enrichit les possibilité...)

 

L'autre technique (donc celle que j'utilise) a aussi des avantage , par exemple tu peux passé plus d'accord , plus facilement ... comme les accord 7eme , 9eme , ou simplement des accord qui demande a utilisée tous les doigt de la main...

 

Donc a toi de voir comment tu est le plus a l'aise...

je pense (et je n'en suis pas sur) que la 1ere facon (donc en fesant 2barré) demande un petit temp pour s'habitué, mais comme tous le reste , ca vient avec le travail ;)

Lien à poster
Partager sur d’autres sites

j'ai une amie qui arrive a faire des truc de malade avec ses doigts elle peut les recourber rien ken taper dessus :boing: elle dit que c'est de famille...

Moi perso c'est deja bien si mon barré sonne :p surtout sur le schéma de LA et sur une guitare folk j'y arrive pas. je sais j'suis un peu HS :D)

Lien à poster
Partager sur d’autres sites

Veuillez vous connecter pour commenter

Vous pourrez laisser un commentaire après vous êtes connecté.



Connectez-vous maintenant
×
×
  • Créer...