Aller au contenu
nougat627

[Anonyme] Greensleeves

Messages recommandés

version picking :

 

                  Am                      C
|------------|------------------------|--0-------0h--1--0-------|
|------------|--1-------------3-------|-------------------------|
|-------2----|----------2-------------|-------------------------|
|------------|-------2-----------2----|-------2------------2----|
|------------|--0----------0----------|--3-----------3----------|
|------------|------------------------|-------------------------|


  G                                                 Am
------------------------|-------------------------|-----------------------|
--3-------3-----0-------|-----------------0-------|--1--------------------|
------------------------|--0-------0h--2----------|---------------2-------|
-------0-----------0----|-------0------------0----|-------2----------2----|
------------------------|-------------------------|--0---------0----------|
--3----------3----------|--3-----------3----------|-----------------------|


                           E
------------------------|------------------------|------------------------|
------------------------|--0-------0-------------|----------------0-------|
--2-------1-----2-------|----------------1-------|----------1-------------|
-------2-----------2----|-------2-----------2----|--2----2-----------2----|
--0----------0----------|------------------------|------------------------|
------------------------|--0----------0----------|--0----------0----------|


  Am                        C                        G
------------------------|--0-------0h--1--0-------|------------------------|
--1-------------3-------|-------------------------|--3-------3-----0-------|
----------2-------------|-------------------------|------------------------|
-------2-----------2----|-------2------------2----|-------0-----------0----|
--0----------0----------|--3-----------3----------|------------------------|
------------------------|-------------------------|--3----------3----------|


                            Am                        E
-------------------------|-------------------------|------------------------|
-----------------0-------|--1-------0h--1----------|------------------------|
--0-------0h--2----------|-----------------2-------|--1-------------1-------|
-------0------------0----|-------2------------2----|-------2--4--------2----|
-------------------------|--0----------------------|------------------------|
--3-----------3----------|-------------------------|--0----------0----------|


  Am                                                 C
------------------------|-------------------------|-------3-------3-------|
----------------1-------|--0h--1------------------|-----------------------|
--2-------2-------------|------------2------------|-----------------------|
-------2-----------2----|---------2---------------|-------2----------2----|
--0----------0----------|--0------------0----2----|--3---------3----------|
------------------------|-------------------------|-----------------------|


                            G                        G
--3-------0h--1--0-------|------------------------|-------------------------|
-------------------------|--3-------3-----0-------|-----------------0-------|
-------------------------|------------------------|--0-------0h--2----------|
-------2------------2----|-------0-----------0----|-------0------------0----|
--3-----------3----------|------------------------|-------------------------|
-------------------------|--3----------3----------|--3-----------3----------|


  Am                                               E
-----------------------|------------------------|------------------------|
--1--------------------|------------------------|--0-------0-------------|
---------------2-------|--2-------1-----2-------|----------------1-------|
-------2----------2----|-------2-----------2----|-------2-----------2----|
--0---------0----------|--0----------0----------|------------------------|
-----------------------|------------------------|--0----------0----------|


  E                       C                        C
-----------------------|-------3-------3-------|--3-------0h--1--0-------|
-----------------------|-----------------------|-------------------------|
----------1------------|-----------------------|-------------------------|
--2----2----------2----|-------2----------2----|-------2------------2----|
-----------------------|--3---------3----------|--3-----------3----------|
--0----------0---------|-----------------------|-------------------------|


   G                                                 Am
------------------------|-------------------------|-------------------------|
--3-------3-----0-------|-----------------0-------|--1-------0h--1----------|
------------------------|--0-------0h--2----------|-----------------2-------|
-------0-----------0----|-------0------------0----|-------2------------2----|
------------------------|-------------------------|--0-----------0----------|
--3----------3----------|--3-----------3----------|-------------------------|


  E                         Am
-------------------------|------------------------|-------------------------|
-------------------------|----------------1-------|--0h--1------------------|
--1--------------1-------|--2-------2-------------|------------2------------|
-------2h--4--------2----|-------2-----------2----|---------2---------------|
-------------------------|--0----------0----------|--0------------0---------|
--0-----------0----------|------------------------|-------------------------|

 

 

pour le rythme, basez-vous sur les basses, qui sont très régulières (j'aurais bien mis des couleurs mais le


l'empêche et pas moyen de changer de police d'écriture...)


Ceci n'est pas ma signature, je le réécris à chaque post

Partager ce message


Lien à poster
Partager sur d’autres sites

Veuillez vous connecter pour commenter

Vous pourrez laisser un commentaire après vous êtes connecté.



Connectez-vous maintenant

×
×
  • Créer...