Aller au contenu

[BB Brunes] Sixty eight


Messages recommandés

 

 

Bonjour à tous.

 

Aujourdhui je vais essayer retrouver les notes de Sixty Eight de BB Brunes ( jignore si cela a deja été fait), Mais ces accords (bcp de gens sont daccords avec moi) sont quasiment Introuvables, jai chercher un peu sur ma guitare et jai trouvé un bout de lintro les voila ( cette tab a besion detre complété , dc jinvite tous ceux qui connaissent cette chanson a maider merci!

 

INTRO GUITARE 1

 

------------------------------------------------------------------------------------------------------------------

------------------------------------------------------------------------------------------------------------------

------------------------------------------------------------------------------------------------------------------

------------------------------------------------------------------------------------------------------------------

-------1-2-3--2-1-----------------X4---------------------------------------------------------------------------

--1--4-------------4---------------------------------------------------------------------------------------------

------------------------------------------------------------------------------------------------------------------

 

INTRO GUITARE 2 ====> A chaque debut de phrase de la guitare 1 :

 

---1--------------------------------------------------------------------------------------------------------------

---2--------------------------------------------------------------------------------------------------------------

---3-----------------------------------------------------------------------------------------------------------------

---3--------------------------------X4-----------------------------------------------------------------------------

---1--------------------------------------------------------------------------------------------------------------

---1---------------------------------------------------------------------------------------------------------------

 

 

Aprés Jai touvé cet enchainement et c'est la que jai besoin de votre aide :guitare: :

 

 

------X--XX---------X-------------------X-------------X------------------------------------------------------------------

------2--2-2---------X-----------------X---------------X-------------------------------------------------------------------

------3--3-3---------X----------------X----------------X------------------------------------------------------------------

------3--3-3---------4-------x3------6---------x3-----3----X3-----------------------------------------------------------

------X--X-X---------4----------------6----------------3------------------------------------------------------------------

------X--X-X---------2----------------4----------------1-------------------------------------------------------------------

 

Voila jai trouvé ca dites ce que vous en pensez! et completez!

 

:top: ou :hum: ou :boing:

 

 

merci!

Lien à poster
Partager sur d’autres sites

TOTALEMENT FAUUUUUUX O_oO_o

 

allez va c'est asse zlong mais jv'ai la faire etant un fan des tabs de BBbrunes ^^

 

Intro

 

---------------------------------------------------------
-------------------------------------------------------
----------6-7-8-9-8-7-6--------------------------------------
---8-8-8--6-7-8-9-8-7-6-------------------------------------------
---8-8-8--4-5-6-7-6-5-4------------------------------------------
---6-6-6----------------------------------------------------

 

A jouer 4 fois puis VERSETS :

 

 

-------------------------------------------------------
----------------------------------------------------
------8------6---------------------------------------
---8--8--6---6---------------------------------------
---8--6--6---4----------------------------------------
---6-----4------------------------------------------

 

a jouer 4 fois puis :

 

---------------
--------------
----8--10--11-----
-8--8--10--11--------
-8--6--8----8-------
-6---------------

 

le recommencer autant de fois qu"il le faut puis

 

-----------------------------------
-----------------------------------
----------------------------------
----------------------------------
--4--5--6--7--8--7--6--5--------
-----------------------------------

 

 

Puis ensuite c la même chose que precedemment vous trouverez seul ^^

 

 

a++ :top:

Lien à poster
Partager sur d’autres sites

Veuillez vous connecter pour commenter

Vous pourrez laisser un commentaire après vous êtes connecté.



Connectez-vous maintenant
×
×
  • Créer...