Aller au contenu
glaceternel

[Beck] Slip out

Messages recommandés

Salut tout le monde, j'ai trouvé cette tablature ni sur le site ni sur le forum donc je vous la met :) C'est une tablature de la Série animée Beck (Mongolian chop squad) trouvé ici http://www.partoch.com/artistes/tablature,BECK,SLIP+OUT,3061803.html

C'est, entre autres, cet anime qui m'a motivé à acheter une guitare alors j'espère que vous apprécierez cette tab (j'essaierais d'en trouver d'autres si vous le désirez ;) )

 

INTRO
/------------------------------------
/---1-----3-----1-----------3--------
/---0-x8-0-x8-2-x8--5-x4-4-x4-----
/---2-----0-----3-----7-----5--------X2
/---3-----2-----3-----7-----5--------
/---------3-----1-----5-----3--------
Ariver a la deuxième fois fini avec l'accord C et laisser résonner


/-------------------------------------------------------------------------------------------------------
/--1--1--1--1-1--1-1--1-1-1-1---3--3--3--3-3--3-3--3-3-3-3---1--1--1--1-1--1-1--1-1-1-1-----------------
/--0--0--0--0-0--0-0--0-0-0-0---0--0--0--0-0--0-0--0-0-0-0---2--2--2--2-2--2-2--2-2-2-2---5--5--5--5-5--
/--2--2--2--2-2--2-2--2-2-2-2---0--0--0--0-0--0-0--0-0-0-0---3--3--3--3-3--3-3--3-3-3-3---7--7--7--7-7--
/--3--3--3--3-3--3-3--3-3-3-3---2--2--2--2-2--2-2--2-2-2-2---3--3--3--3-3--3-3--3-3-3-3---7--7--7--7-7--
/-------------------------------3--3--3--3-3--3-3--3-3-3-3---1--1--1--1-1--1-1--1-1-1-1---5--5--5--5-5--

/-----------------
/--3--3--3--3-3---
/--4--4--4--4-4---
/--5--5--5--5-5---faite sa deux fois arriver a la fin de la deuxième faite
/--5--5--5--5-5---
/--3--3--3--3-3---

/------------------------------
/--1--1--1--1-1--1-1--1-1-1-1--
/--0--0--0--0-0--0-0--0-0-0-0--X2
/--2--2--2--2-2--2-2--2-2-2-2--
/--3--3--3--3-3--3-3--3-3-3-3--
/------------------------------

COUPLET 1

/-------------------------------------------------------------------------------------------------------
/--1--1--1--1-1--1-1--1-1-1-1---3--3--3--3-3--3-3--3-3-3-3---1--1--1--1-1--1-1--1-1-1-1-----------------
/--0--0--0--0-0--0-0--0-0-0-0---0--0--0--0-0--0-0--0-0-0-0---2--2--2--2-2--2-2--2-2-2-2---5--5--5--5-5--
/--2--2--2--2-2--2-2--2-2-2-2---0--0--0--0-0--0-0--0-0-0-0---3--3--3--3-3--3-3--3-3-3-3---7--7--7--7-7--
/--3--3--3--3-3--3-3--3-3-3-3---2--2--2--2-2--2-2--2-2-2-2---3--3--3--3-3--3-3--3-3-3-3---7--7--7--7-7--
/-------------------------------3--3--3--3-3--3-3--3-3-3-3---1--1--1--1-1--1-1--1-1-1-1---5--5--5--5-5--

/-----------------
/--3--3--3--3-3---
/--4--4--4--4-4---
/--5--5--5--5-5---faite sa deux fois arriver a la fin de la deuxième faite un C et laiser resonner puis
/--5--5--5--5-5---
/--3--3--3--3-3---

/------------------------------
/---1-----1-----1-----1--------
/------0-----0-----0-----0-----
/------------------------------
/------------------------------
/------------------------------

PRE-REFRAIN

/----------------------------------------------
/--1-----3-----1----1-----1-----3-----1--------
/--2-----0-----0----2-----2-----0-----0--------
/--3-x4--0-x4--2-x4-2-x8--3-x4--0-x4--2-x8-----faite sa deux fois
/--3-----2-----3----0-----3-----2-----3--------
/--1-----3----------------1-----3--------------

REFRAIN

/------------------------
/------------------------
/------------------------
/----6-----8-----10------faite sa 4 fois
/----6-x4--8-x4--10-x8---
/----4-----6-----8-------

SOLO
/----------------------------------------------------------------------------------------------------------
/---10----8-------------------------------------------------8----------------------------------------------
/---10-10-8------8----8--8---78-----8--8---8----8----8--10-----10-8-10--8------8-----8----8----8----8-10---
/------------------10----------10-----------10----10------------------------10---------10---10---10--------
/----------------------------------------------------------------------------------------------------------
/----------------------------------------------------------------------------------------------------------

/----------------------------------------8-----------8--------------8-------------------11-----------------
/--10-10-8-10---8-10---8---10-8-10-8-10----10--8--10----10-8-10-10-----10-8-10-8-10-8-10---10-8-10-8-10----
/----------------------------------------------------------------------------------------------------------
/----------------------------------------------------------------------------------------------------------
/----------------------------------------------------------------------------------------------------------
/----------------------------------------------------------------------------------------------------------

/--------------------------------------------1515151515--22----22-----22--22------
/---------------------------------------------------------------------------------
/--10--8--8----8-----8-8--8----8-----8-10-----------------------------------------
/-----------10----10--------10----10----------------------------------------------
/---------------------------------------------------------------------------------
/---------------------------------------------------------------------------------

BRIDGE

/---------------------------------------------------------------
/------------------------------------------------1-----3--------
/---------------------5--------------------------2-----4--------
/---7-----5-----3-----5-X4---X3----7-----5-------3-X8--5-X16----
/---7-X4--5-X4--3-X4--3------------7-X4--5-X4----3-----5--------
/---5-----3-----1------------------5-----3-------1-----3--------

PRE-REFRAIN

/----------------------------------------------
/--1-----3-----1----1-----1-----3-----1--------
/--2-----0-----0----2-----2-----0-----0--------
/--3-x4--0-x4--2-x4-2-x8--3-x4--0-x4--2-x8-----faite sa deux fois
/--3-----2-----3----0-----3-----2-----3--------
/--1-----3----------------1-----3--------------

REFRAIN

/------------------------                /-------------------
/------------------------                /-------------------
/------------------------                /-------------------
/----6-----8-----10------faite sa 3 fois /--6-----8------10--Laisser résonner le dernier accords
/----6-x4--8-x4--10-x8---                /--6-X4--8-X4---10--
/----4-----6-----8-------                /--4-----6------8---

OUTRO
Faite sa avec beaucoup de gain(c'est un effet)

/-------------------------------------------------------------------------------------------------------
/--1--1--1--1-1--1-1--1-1-1-1---3--3--3--3-3--3-3--3-3-3-3---1--1--1--1-1--1-1--1-1-1-1-----------------
/--0--0--0--0-0--0-0--0-0-0-0---0--0--0--0-0--0-0--0-0-0-0---2--2--2--2-2--2-2--2-2-2-2---5--5--5--5-5--
/--2--2--2--2-2--2-2--2-2-2-2---0--0--0--0-0--0-0--0-0-0-0---3--3--3--3-3--3-3--3-3-3-3---7--7--7--7-7--
/--3--3--3--3-3--3-3--3-3-3-3---2--2--2--2-2--2-2--2-2-2-2---3--3--3--3-3--3-3--3-3-3-3---7--7--7--7-7--
/-------------------------------3--3--3--3-3--3-3--3-3-3-3---1--1--1--1-1--1-1--1-1-1-1---5--5--5--5-5--

/-----------------
/--3--3--3--3-3---
/--4--4--4--4-4---
/--5--5--5--5-5---faite sa deux fois arriver a la fin de la deuxième faite un C et laiser resonner puis
/--5--5--5--5-5---
/--3--3--3--3-3---

 

Voila j'essaie de trouver une vidéo décente ou on ne voit pas un type mal rasé qui chante avec une voix cassée par dessus :x

Partager ce message


Lien à poster
Partager sur d’autres sites

idem, c'est la s&rie là qui m'as donné envie de faire de la gratte ^^

 

Tu l'aurais pas avec les paroles dessus et les accords au=dessus des accords ?


sanstitre2dddtz3.png

 

Le mal triomphe par l'inaction des gens de biens

Partager ce message


Lien à poster
Partager sur d’autres sites

Comme cela ?

 

Intro: A répéter 3 fois

C(1T) G(1T) Fmay7(1T) Am(1/2T) G(1/2T) 2x
C(2T)

Refrain:

F5(1/2T) G5(1/2T) C5(1/2T) A5(1/2T)

F5(1/2T) G5(1/2T) C5(1T)

F5(1/2T) G5(1/2T) C5(1/2T) A5(1/2T)

F5(1/2T) G5(1/2T) C5(1T)

G5(1/2T) A5(1/2T) C5(1T) 4x

Solo:

F5(1/2T) G5(1/2T) A5(1T) 3x

F5(1/2T) G5(1/2T) C5(1T)

Changement

A5(1/2T) G5(1/2T) F5(1/2T) C5(1/2T) 6x

A5(1/2T) G5(1/2T) F5(1T) G5(2T)

Refrain:

F5(1/2T) G5(1/2T) C5(1/2T) A5(1/2T)

F5(1/2T) G5(1/2T) C5(1T)

F5(1/2T) G5(1/2T) C5(1/2T) A5(1/2T)

F5(1/2T) G5(1/2T) C5(1T)

G5(1/2T) A5(1/2T) C5(1T) 4x



Fin

C(1T) G(1T) Fmay7(1T) Am(1/2T) G(1/2T) 2x

Accord utilisés:

__C___G__Fmay7__Am___F5__G5__C5__A5

e 0---3---1-----0----X---X---X---X
B 1---3---1-----1----X---X---X---X
G 0---0---2-----2----X---X---5---2
D 2---0---3-----2----3---5---5---2
A 3---2---3-----0----3---5---3---X
E X---3---1-----X----1---3---X---X

 

(voila pour le lien) http://beck.master.free.fr/index.php?page=tablatures/guitare_slipout

 

Sinon pour les paroles je n'ai pas trouvé de site qui montrais à quel moment il fallait faire sonner les accords en fonction des paroles, mais en l'écoutant 2/3 fois c'est plutôt facile :) Lien pour les paroles -> http://www.beck-mcs.org/?page=paroles&sspage=20_Beck_Slip_out_(LITTLE_More_Than_Before)

Partager ce message


Lien à poster
Partager sur d’autres sites

c'est pas ce que je voulais mais a mon avis sa doit pas exister

 

en tout cas, merci, j'ai l'ai faites plusieurs fois et sa commence à rentrer :D


sanstitre2dddtz3.png

 

Le mal triomphe par l'inaction des gens de biens

Partager ce message


Lien à poster
Partager sur d’autres sites

Si vous voulez je peux en mettre d'autre ça m'a pas pris longtemps (I've got a feeling, Follow me, Face, Moon of the water, Hit on the USA sont pas mal, j'ai testé les autres aussi mais elles ne sont pas très fun à jouer)

Partager ce message


Lien à poster
Partager sur d’autres sites

Moi je suis pour puisque tu l'propose^^.

Partager ce message


Lien à poster
Partager sur d’autres sites

Bah tu veux laquelle ? La chui pas trop motivé pour les mettre tous donc si yen a 1 que tu veux spécialement je la met, sinon je les mettrais 1 par 1 en fonction de ce que je trouve en premier. Vous préférez le nom des accords ou la tablature complète ?

Partager ce message


Lien à poster
Partager sur d’autres sites

glaceternel, tu as essayer by her ? Perso, je trouve les riffs super, si tu l'as, moi je l'as veut bien ^^ Merci


sanstitre2dddtz3.png

 

Le mal triomphe par l'inaction des gens de biens

Partager ce message


Lien à poster
Partager sur d’autres sites

non, d'ailleurs, tu par Mp tu sais me dire comment faire pour l'avoir :D

 

 

merci glaceternel, grâce à toi je prend un pied d'enfer sur ces morceau :D

 

 

_______________________________________________________________________________________________________________________


sanstitre2dddtz3.png

 

Le mal triomphe par l'inaction des gens de biens

Partager ce message


Lien à poster
Partager sur d’autres sites

Veuillez vous connecter pour commenter

Vous pourrez laisser un commentaire après vous êtes connecté.



Connectez-vous maintenant

×
×
  • Créer...