Aller au contenu
elizz

[Ben Harper] Waiting on an angel

Messages recommandés

je cherche la tabs de" waiting on an angel" avec les paroles ,si quelqu'un a sa en magasin sa serai cool ,merci d'avance :)

Partager ce message


Lien à poster
Partager sur d’autres sites

c'est ça? :)

 

Intro:
e|-------------|-----------------|-------------|-----------------|
B|---1-1---1-1-|---1-1p0---0-0h1-|---1-1---1-1-|---1-1p0---------|
G|---0-0---0-0-|---2-2p0---0-0---|---0-0---0-0-|---2-2p0---------|
D|-------------|-----------------|-------------|-----------------|
A|-3-----2-----|-0---------------|-3-----2-----|-0---------------|
E|-------------|---------3-------|-------------|---------3-------|

Verse:
3 Times...                                                    ...¬
e|----------------------------------|----------------------------|
B|-------1----1-------1----1--------|-------1---1p0------0---0h1-|
G|-------0----0-------0----0--------|-------2---2--------0---0---|
D|----------------------------------|----------------------------|
A|---3------------2-----------------|---0------------------------|
E|----------------------------------|----------------3-----------|

e|-----------------------|-----------------|
B|---1-1p0---------0-0h1-|---1-1p0---0-0h1-|
G|---0-0-----------0-0---|---0-0-----0-0---|
D|-----------------------|-----------------|
A|-----------------------|-0---------------|
E|-1-------------3-------|---------0-------|

                        Repeat x2 ...               ...¬
e|----------------------|-------------|-----------------|
B|---1-1p0--------0-0h1-|---1-1---1-1-|---1-1p0---0-0h1-|
G|---0-0----------0-0---|---0-0---0-0-|---2-2p0---0-0---|
D|----------------------|-------------|-----------------|
A|----------------------|-3-----2-----|-0---------------|
E|-1------------3-------|-------------|---------3-------|


Verse 2:

end verse 2 with
e|------------------|-----------------|
B|----1-1p0---0-0h1-|---1-1p0---0-0h1-|
G|----0-0-----0-0---|---0-0-----0-0---|
D|------------------|-----------------|
A|------------------|-0---------------|
E|--1-------3-------|---------0-------|


e|------------------|-----------------|
B|----1-1p0---0-0h1-|---1-1p0---0-0h1-|
G|----0-0-----0-0---|---0-0-----0-0---|
D|------------------|-----------------|
A|------------------|-3---------------|
E|--1-------3-------|---------0-------|


Chorus:
 Repeat 2 Times...                                                   ...¬
e|-----------------|-----------------|-----------------|-----------------|
B|---1-1p0---0-0h1-|---1-1p0---0-0h1-|---1-1p0---0-0h1-|---1-1p0---0-0h1-|
G|---0-0-----0-0---|---0-0-----0-0---|---0-0-----0-0---|---0-0-----0-0---|
D|-----------------|-----------------|-----------------|-----------------|
A|-----------------|-0---------------|-----------------|-3---------------|
E|-1-------3-------|---------0-------|-1-------3-------|---------0-------|

                   Repeat 2 Times...           ...¬
e|-----------------|-------------|-----------------|
B|---1-1p0---0-0h1-|---1-1---1-1-|---1-1p0---0-0h1-|
G|---0-0-----0-0---|---0-0---0-0-|---2-2p0---0-0---|
D|-----------------|-------------|-----------------|
A|-----------------|-3-----2-----|-0---------------|
E|-1-------3-------|-------------|---------3-------|


Verse 3:

Chorus:

Verse 4:

end verse 4 with

e|------------------------|-----------------|
B|----1-1p0---------0-0h1-|---1-1p0---0-0h1-|
G|----0-0-----------0-0---|---0-0-----0-0---|
D|------------------------|-----------------|
A|------------------------|-3---------------|
E|--1-------------3-------|---------0-------|


e|---------------------|-----------------------|
B|-------1-1p0---0-0h1-|---1-1p0---------0-0h1-|
G|-------0-0-----0-0---|---0-0-----------0-0---|
D|---------------------|-----------------------|
A|---------------------|-0---------------------|
E|-----1-------3-------|---------------0-------|


e|------------------------|---------|
B|----1-1p0---------0-0h1-|---1-----|
G|----0-0-----------0-0---|---0-----|
D|------------------------|---------|
A|------------------------|---3-----|
E|--1-------------3-------|---------|

 

http://www.fretplay.com/tabs/h/harper_ben/waiting_on_an_angel-tab.shtml


t4aap7.png

Partager ce message


Lien à poster
Partager sur d’autres sites

J'trouve pas ça top lisible, mais avec les paroles, enfin y'a qu'le début :x: :

Tuning:EADGBe
Timing 3/4

intro
    C				      Am	        G
e||----------------|----------------|----------------|---------------|
B||-----1--1-------|-----1--1-------|-----1--1p0-----|-----0--0h1----|
G||-----0--0-------|-----0--0-------|-----2--2p0-----|-----0--0------|
D||----------------|----------------|----------------|---------------|
A||--3-------------|--2-------------|--0-------------|---------------|
E||----------------|----------------|----------------|--3------------|

   C				      Am	        G
e|-----------------|----------------|----------------|---------------||
B|-----1--1--------|-----1--1-------|-----1--1p0-----|---------------||
G|-----0--0--------|-----0--0-------|-----2--2p0-----|---------------||
D|-----------------|----------------|----------------|---------------||
A|--3--------------|--2-------------|--0-------------|---------------||
E|-----------------|----------------|----------------|--3------------||

verse (riff 1):

    C					Am		G
e||-----------------|----------------|----------------|--------------||
B||-----1--1--------|-----1--1-------|-----1--1p0-----|-----0--0h1---||
G|*-----0--0--------|-----0--0-------|-----2--2p0-----|-----0--0-----*| repeat x2
D|*-----------------|----------------|----------------|--------------*|
A||--3--------------|--2-------------|--0-------------|--------------||
E||-----------------|----------------|----------------|--3-----------||
    waiting	       on		an		 angel.......

riff 2:

   F		      G		      Am
e||----------------|----------------|----------------|----------------|
B||----1--1p0------|-----0--0h1-----|-----1--1-------|-----1--1-------|
G||----2--2p0------|-----0--0-------|-----2--2-------|-----2--2-------|
D||----------------|----------------|----------------|----------------|
A||----------------|----------------|--0-------------|----------------|
E||-1--------------|--3-------------|----------------|--0-------------|
cause i dont want to walk         a -lo     -           one

   F		      G
e|-----------------|----------------||
B|-----1--1--------|-----0--0h1-----||
G|-----2--2--------|-----0--0-------||
D|-----------------|----------------||
A|-----------------|----------------||
E|--1--------------|--3-------------||
i dont     want to  walk

riff 1:

    C		    			Am		G
e||-----------------|----------------|----------------|--------------||
B||-----1--1--------|-----1--1-------|-----1--1p0-----|-----0--0h1---||
G|*-----0--0--------|-----0--0-------|-----2--2p0-----|-----0--0-----*| 
D|*-----------------|----------------|----------------|--------------*|
A||--3--------------|--2-------------|--0-------------|--------------||
E||-----------------|----------------|----------------|--3-----------||
   alone

verse 2:

riff 1

    C					Am		G
e||---------------|--------------|----------------|--------------||
B||---1--1--------|-----1--1-----|-----1--1p0-----|-----0--0h1---||
G|*---0--0--------|-----0--0-----|-----2--2p0-----|-----0--0-----*|repeat x2
D|*---------------|--------------|----------------|--------------*|
A||3--------------|--2-----------|--0-------------|--------------||
E||---------------|--------------|----------------|--3-----------||

riff 2

   F		      G		      Am
e||----------------|----------------|----------------|----------------|
B||----1--1p0------|-----0--0h1-----|-----1--1-------|-----1--1-------|
G||----2--2p0------|-----0--0-------|-----2--2-------|-----2--2-------|
D||----------------|----------------|----------------|----------------|
A||----------------|----------------|--0-------------|----------------|
E||-1--------------|--3-------------|----------------|--0-------------|

   F		      G
e|-----------------|----------------||
B|-----1--1--------|-----0--0h1-----||
G|-----2--2--------|-----0--0-------||
D|-----------------|----------------||
A|-----------------|----------------||
E|--1--------------|--3-------------||

Riff 3:

e||----------------|----------------|----------------|----------------|
B||----1--1--------|-----1--1-------|-----1--1p0-----|-----0--0h1-----|
G|*----0--0--------|-----0--0-------|-----2--2p0-----|-----0--0-------|
D|*----------------|----------------|----------------|----------------|
A||-3--------------|----------------|----------------|----------------|
E||----------------|--0-------------|--1-------------|--3-------------|

e|-----------------|----------------|----------------|---------------||
B|-----1--1--------|-----1--1-------|-----1--1p0-----|-----0--0h1----||
G|-----2--2--------|-----2--2-------|-----2--2p0-----|-----0--0------*|
D|-----------------|----------------|----------------|---------------*|
A|--0--------------|----------------|----------------|---------------||
E|-----------------|--0-------------|--1-------------|--3------------||

riff 4:

e||----------------|----------------|----------------|---------------||
B||-----1--1-------|-----1--1-------|-----1--1p0-----|-----0--0h1----||
G||-----0--0-------|-----0--0-------|-----2--2p0-----|-----0--0------||
D||----------------|----------------|----------------|---------------||
A||--3-------------|----------------|----------------|---------------||
E||----------------|--0-------------|--1-------------|--3------------||

riff 1:

    C		    			Am		G
e||-----------------|----------------|----------------|--------------||
B||-----1--1--------|-----1--1-------|-----1--1p0-----|-----0--0h1---||
G|*-----0--0--------|-----0--0-------|-----2--2p0-----|-----0--0-----*| 
D|*-----------------|----------------|----------------|--------------*|
A||--3--------------|--2-------------|--0-------------|--------------||
E||-----------------|----------------|----------------|--3-----------||

verse 3
riff 1

    C					Am		G
e||---------------|--------------|--------------|--------------||
B||-----1--1------|-----1--1-----|-----1--1p0---|-----0--0h1---||
G|*-----0--0------|-----0--0-----|-----2--2p0---|-----0--0-----*| repeat x2
D|*---------------|--------------|--------------|--------------*|
A||--3------------|--2-----------|--0-----------|--------------||
E||---------------|--------------|--------------|--3-----------||

riff 2

   F		      G		      Am
e||----------------|----------------|----------------|----------------|
B||----1--1p0------|-----0--0h1-----|-----1--1-------|-----1--1-------|
G||----2--2p0------|-----0--0-------|-----2--2-------|-----2--2-------|
D||----------------|----------------|----------------|----------------|
A||----------------|----------------|--0-------------|----------------|
E||-1--------------|--3-------------|----------------|--0-------------|

   F		      G
e|-----------------|----------------||
B|-----1--1--------|-----0--0h1-----||
G|-----2--2--------|-----0--0-------||
D|-----------------|----------------||
A|-----------------|----------------||
E|--1--------------|--3-------------||

Riff 3:

e||----------------|----------------|----------------|----------------|
B||----1--1--------|-----1--1-------|-----1--1p0-----|-----0--0h1-----|
G|*----0--0--------|-----0--0-------|-----2--2p0-----|-----0--0-------|
D|*----------------|----------------|----------------|----------------|
A||-3--------------|----------------|----------------|----------------|
E||----------------|--0-------------|--1-------------|--3-------------|

e|-----------------|----------------|----------------|---------------||
B|-----1--1--------|-----1--1-------|-----1--1p0-----|-----0--0h1----||
G|-----2--2--------|-----2--2-------|-----2--2p0-----|-----0--0------*|
D|-----------------|----------------|----------------|---------------*|
A|--0--------------|----------------|----------------|---------------||
E|-----------------|--0-------------|--1-------------|--3------------||

riff 4:

e||----------------|----------------|----------------|---------------||
B||-----1--1-------|-----1--1-------|-----1--1p0-----|-----0--0h1----||
G||-----0--0-------|-----0--0-------|-----2--2p0-----|-----0--0------||
D||----------------|----------------|----------------|---------------||
A||--3-------------|----------------|----------------|---------------||
E||----------------|--0-------------|--1-------------|--3------------||

riff 1:

    C		    			Am		G
e||-----------------|----------------|----------------|--------------||
B||-----1--1--------|-----1--1-------|-----1--1p0-----|-----0--0h1---||
G|*-----0--0--------|-----0--0-------|-----2--2p0-----|-----0--0-----*| 
D|*-----------------|----------------|----------------|--------------*|
A||--3--------------|--2-------------|--0-------------|--------------||
E||-----------------|----------------|----------------|--3-----------||

riff 1

    C					Am		G
e||---------------|--------------|--------------|--------------||
B||-----1--1------|-----1--1-----|-----1--1p0---|-----0--0h1---||
G|*-----0--0------|-----0--0-----|-----2--2p0---|-----0--0-----*| repeat x2
D|*---------------|--------------|--------------|--------------*|
A||--3------------|--2-----------|--0-----------|--------------||
E||---------------|--------------|--------------|--3-----------||


e|-----------------|----------------|
B|-----1--1p0------|-----0--0h1-----|
G|-----2--2p0------|-----0--0-------|
D|-----------------|----------------|
A|-----------------|----------------|
E|--1--------------|--3-------------|

riff 4:

e||----------------|----------------|----------------|---------------||
B||-----1--1-------|-----1--1-------|-----1--1p0-----|-----0--0h1----||
G||-----0--0-------|-----0--0-------|-----2--2p0-----|-----0--0------||
D||----------------|----------------|----------------|---------------||
A||--3-------------|----------------|----------------|---------------||
E||----------------|--0-------------|--1-------------|--3------------||

outro:

e|-----------------|----------------|----------------|----------------|
B|-----1--1--------|-----1--1-------|-----1--1p0-----|-----0--0h1-----|
G|-----2--2--------|-----2--2-------|-----2--2p0-----|-----0--0-------|
D|-----------------|----------------|----------------|----------------|
A|--0--------------|----------------|----------------|----------------|
E|-----------------|--0-------------|--1-------------|--3-------------|

   C^
e|----------3------||
B|------1---1------||
G|------0----------||
D|----2------------||
A|--3-----3--------||
E|-----------------||

http://www.guitaretab.com/h/harper-ben/7800.html


t4aap7.png

Partager ce message


Lien à poster
Partager sur d’autres sites

Veuillez vous connecter pour commenter

Vous pourrez laisser un commentaire après vous êtes connecté.



Connectez-vous maintenant

×
×
  • Créer...