Aller au contenu
  • 0
bluesman

[Benjamin Siksou] Just the two of us

Question

Bonjour tout le monde,

j'ai découvert depuis peu ce chanteur... une vrai voix! Entre -M- et Paolo nutini en gros..

Je cherche donc cette partoche avec si possible les paroles...

Merci d'avance!

Max


Ni pour ni contre bien au contraire!

Partager ce message


Lien à poster
Partager sur d’autres sites

1 réponse à cette question

Messages recommandés

  • 0

Voilà pour les accords... ça se trouve sur le net

 

C B7 G Em

 

--0-- --2-- --3-- --0--

--1-- --0-- --0-- --0--

--0-- --2-- --0-- --0--

--2-- --1-- --0-- --2--

--3-- --2-- --2-- --2--

--0-- --0-- --3-- --0--

 

 

 

 

C B7 Em Em7

 

--0-- --2-- --0-- --0--

--1-- --0-- --0-- --3--

--0-- --2-- --0-- --0--

--2-- --1-- --2-- --0--

--3-- --2-- --2-- --2--

--0-- --0-- --0-- --0--

 

:guitare:

ou

:guitare:

Just The Two Of Us

Chanson original de Bill Withers

 

 

 

|------x-------x-------t-----------x------x------x--------t-----------|

|---1--x-------x-------t--0---0-0--x---1--x------x--------t-----------|

|---0--x---2---x-------t--0---0-0--x---0--x---2--x--------t-----------| A jouer tout au

|---2--x---1---x--2--2-t--0---0-0--x---2--x---1--x--2--2--t--2---2-2--| long de la chanson

|---3--x---2---x--2--2-t--2---2-2--x---3--x---2--x--2--2--t--2---2-2--|

|------x-------x--0--0-t--3---3-3--x------x------x--0--0--t--0---0-0--|

C B7 Em G C B7 Em Em

 

Si vous ne trouvez pas le rythme, ecoutez la chanson sur youtube par exemple..

 

 

x: coup sur les cordes

t: leger coup sur les cordes

 

 

:guitare:

Partager ce message


Lien à poster
Partager sur d’autres sites

Veuillez vous connecter pour commenter

Vous pourrez laisser un commentaire après vous êtes connecté.



Connectez-vous maintenant

×
×
  • Créer...