Aller au contenu

[Black Sabbath] Iron man


Messages recommandés

Donc voici une petite tablature de Black Sabbath

 

Date: Mon, 27 Nov 2000 01:09:03 -0500
From: "Chris W. Siewert" 
Subject: b/black_sabbath/ironman.tab

Black Sabbath
"Ironman"

Transcribed by Chris Siewert:
chris_siewert10@yahoo.com for questions or comments


This song is fairly easy to play.
I couldn't figure out the solos, so figure them out
yourself.  
I transcribed it kinda plain, so feel free to add your
own touches.
This song is played with standard tuning
(E,A,D,G,B,e).



Riff A:
e------------------------------------------------------
B------------------------------------------------------
G------------------------------------------------------
D------------------------------------------------------
A------------------------------------------------------
E---0h1^2p0-------0h1^2p0-------0h1^2p0----------------

Riff B:
e------------------------------------------------------
B------------------------------------------------------
G------------------------------------------------------
D---4---7---7---9-9---12/9--12/9--12/9----7-7---9-9----
A---2---5---5---7-7---10/11-10/11-10/11---5-5---7-7----
E------------------------------------------------------

Riff C:
e------------------------------------------------------
B------------------------------------------------------
G------------------------------------------------------
D------------------------------------------------------
A---2---5---5---7-7---10/11-10/11-10/11---5-5---7-7^---
E------------------------------------------------------

Riff D:
e------------------------------------------------------
B------------------------------------------------------
G------------------------------------------------------
D---------0--------------------------------------------
A---2-2-------2---1---0-0-0-------0-0-0-1--------------
E---------------------------0--------------------------

Riff E:
e------------------------------------------------------
B------------------------------------------------------
G----------------(----------------2-3-4)---------------
D---9------7-----(4-4-----2-2-3-4------)-Repeat--------
A---7------5-----(2-2-2-5--------------)---------------
E------------------------------------------------------

Riff F:
e------------------------------------------------------
B------------------------------------------------------
G---6-4------------------------------------------------
D--------6-5-4-2---------------------------------------
A----------------2-2-4-4-------------------------------
E------------------------------------------------------

Riff G:
e------------------------------------------------------
B------------------------------------------------------
G------------------------------------------------------
D---------------------------4-5-4-5-4------------------
A---7-5-7---5h7p5---7-5-7-------------5----------------
E------------------------------------------------------

Riff A x1
Riff B x2
Riff C x2
Riff B x1
Riff C x2
Riff D x3
Riff B x2
Riff C x2
Riff E x2
Riff B x2
Riff C x2
Riff E x2
Riff F x2
Solo 1
Riff B x2
Riff C x2
Riff D x3
Riff A x1
Riff G x2
Solo 2
Riff G x3
Date: Sat, 20 Oct 2001 21:40:11 -0400
From: "OTTO'S" 
Subject: b/black_sabbath/iron_man.tab

Song: Iron Man Solos
Artist: Black Sabbath
Album: Paranoid
Transcribed By: Michael James

Solo 1:
|------------------------------------------------------------
|---------------------------------5----------5-5-------------
|-------------------------4-4-4h6---6--6p4-------6p4---4h6---
|-----2-2h4-4p2---2-4-4/6------------------6---------6-------
|-2-4-----------4--------------------------------------------
|------------------------------------------------------------

|-------------9-----------------------------------9---------------
|-------------9--12p9-----9-------------------------129----9-129--
|-6---11-11^----------11----9-9^------------9-11^------119--------
|---------------------------------11-9-9h11-----------------------
|-----------------------------------------------------------------
|-----------------------------------------------------------------

|----------------9-12^----9--------12^---12^^12---12^^12-129----9------- --
|----9-129-----9---12^------12-9-9---------------------------12---12-12^ --
|-11-------119---------------------------------------------------------- --
|----------------------------------------------------------------------- --
|----------------------------------------------------------------------- --
|----------------------------------------------------------------------- --

|-----9---------9-------------------------------------------------------
|-12^---129---9---129---------------------------------------------------
|----------11---------11-11p9---9-9--------------9-9--------------9-----
|----------------------------11-----11p9----9h11-----11p9----9-11-9-9---
|----------------------------------------11---------------11------------
|-----------------------------------------------------------------------

|----------------------------------------------------------
|----------------------------------------------------------
|------------------------6-4-------------------------------
|-9h11-9h11-9h11-9h11--------6-5-4-2-----------------------
|------------------------------------2-2/4-4---------------
|----------------------------------------------------------



|----------------------------------------------------------
|----------------------------------------------------------
|----------------------------------------------------------
|----------------------------4-5-4-5p4h5p4p0---------------
|--7h5-7---5h7p5-----7h5-7---------------------------------
|----------------------------------------------------------


Solo 2:
|----------------------------------------------------------
|----------------------------------------------------------
|--------------7---7-9-9^^^--9^^^---9^^--7---7/9-----------
|------5---7/9---9-------------------------9---------------
|--6/7---7-------------------------------------------------
|----------------------------------------------------------

|-----------10-10h12-12^-12^-12^^-10-12p10-----10----------------------
|-8---10/12---------------------------------------12-1210-8-11-8------
|---9--------------------------------------12---------------------9-7--
|----------------------------------------------------------------------
|----------------------------------------------------------------------
|----------------------------------------------------------------------

|----------------------------------------------------------
|----------------------------------------------------------
|---------------------------------7---7-9-9^^-9^^-9^^^^----
|-97-5--7p5----5h7-------5-7-7/9---9----------------------
|------------7------5h7------------------------------------
|----------------------------------------------------------

|----------------------------------------------------------
|----------------------------------------------------------
|--9^-9^^-9p7----7-----------------------------------------
|-------------9------97-5-7---5-7-7^^--7^^--7^^^-5--------
|----------------------------------------------------7-----
|----------------------------------------------------------

Lien à poster
Partager sur d’autres sites
  • 2 months later...
  • 2 months later...

|------------------------------------------    
|------------------------------------------   *this is     
|------------------------------------------   the rhythm
|----7--7/9-9--1211-1211-1211--7-7/9-9--               
|-9--5--5/7-7--109--109--109---5-5/7-7--
|-7----------------------------------------
repeat once

|------------------------------------------
|------------------------------------------
|------------------------------------------
|------------------------------------------
|----5--5h7--7--109-109-109--5--5h7--7--
|-7----------------------------------------
has he lost     can  he  see   or is  blind
        his                        he
         mind

repeat throughout the verse
rhythm once
|------------------------------------------
|------------------------------------------
|------------------------------------------
|------------------------------------------
|----5--5h7--7--109-109-109--5--5h7--7--
|-7----------------------------------------

Is he live or dead? Has he thoughts within his head, ect.
repeat throughout the verse

* 1st riff
|------------------------------------------------------
|------------------------------------------------------
|------------------------------------------------------
|------------------------------------------------------
|-----5-------------------------5----------------------
|-7-7---7-6-5-5-5-0h4-5-5-6-7-7---7-6-5-5-5-0h4-5-5-6--

*end of 1st riff
|-----------------
|-----------------
|-----------------
|-----------------
|-----5-----------
|-7-7---7-6-5-5-5-

rhythm twice

|------------------------------------------
|------------------------------------------
|------------------------------------------
|------------------------------------------
|----5--5h7--7--109-109-109--5--5h7--7--
|-7----------------------------------------

He was turned to steel in the great magnetic field, ect.

*bridge
|----------------------------------------------------
|----------------------------------------------------
|----------------------------------------------------
|-9------------------7-------------------------------
|-7------------------5-------------------------------
|----------------------------------------------------
  Nobody wants him    he just stares at the -

|------------------------------------------------------
|------------------------------------------------------
|------------------------------------------------------
|---------------------7-8-9----------------------7-8-9-
|-9--9-------7--7-8-9--------9--9-------7--7-8-9-------
|-7--7--7-10-----------------7--7--7-10----------------
world

repeat once -
Planning his vengance that he will soon unfurl

rhythm twice

|------------------------------------------
|------------------------------------------
|------------------------------------------
|------------------------------------------
|----5--5h7--7--109-109-109--5--5h7--7--
|-7----------------------------------------

Now the time is here for Iron Man to spread fear, ect.

bridge - 
Nobody wants him, they just turn their heads, ect.

*lead*
|---------------------------------------------
|---------------------------------------------
|---------------------------------------------
|-11-9-------------------11-9-----------------
|------11-10-9-7--------------11-10-9-7-------
|----------------7-7/9-9----------------7-7h9-

|----------------------------------------------------------
|----------------------------------------------------------
|----------------------------------9-9---------9-9---------
|-------------------------9-9-9h11-----11p9--------11p9----
|-----7h9-9p7----7h9-9/11-------------------11----------11-
|-7h9---------9h-------------------------------------------

|--------------9-------------------------------------------
|-----------/9---12-9-----------------------9-12p9----9----
|---------------------11-9-9-----------9h11--------11------
|-9h11-11--------------------11-9-9h11---------------------
|----------------------------------------------------------
|----------------------------------------------------------

|------------------------9--------/14-14-14-14p12----------
|-12p9----9-12p9----9-12---12-9-9-----------------14h-14---
|------11--------11----------------------------------------
|----------------------------------------------------------
|----------------------------------------------------------
|----------------------------------------------------------

|--------9-9-----------------------------------------------
|-12-14------12p9-----9-12-12p9----------------------------
|-----------------11h-----------11h-11p9-----9-9-----------
|----------------------------------------11h-----11p9------
|-----------------------------------------------------11---
|----------------------------------------------------------

|----------------------------------------------------------
|----------------------------------------------------------
|------9-9---------------9---------------------------------
|-9h11-----11p9-----9h11---9-9h11-9h11-9h11-9h11-9h11-11---
|---------------11h----------------------------------------
|----------------------------------------------------------

|----------------------------------------------------------
|----------------------------------------------------------
|----------------------------------------------------------
|-9h11-9h11-9h11-9h11-9h11-11-11-9-----------------11-9----
|----------------------------------11-10-9-7------------11-
|--------------------------------------------7-7/9---------

|--------------
|--------------
|--------------
|--------------
|-10-9-7-------
|--------7-7/9-

repeat 2nd 1/2 of bridge twice =
|------------------------------------------------------
|------------------------------------------------------
|------------------------------------------------------
|---------------------7-8-9----------------------7-8-9-
|-9--9-------7--7-8-9--------9--9-------7--7-8-9-------
|-7--7--7-10-----------------7--7--7-10----------------

rhythm twice

|------------------------------------------
|------------------------------------------
|------------------------------------------
|------------------------------------------
|----5--5h7--7--109-109-109--5--5h7--7--
|-7----------------------------------------

Heavy boots of lead, fills his victims full of dread, ect.

1st riff

 

 

 

 

Sujet fusionné par Bloody fingers.

Lien à poster
Partager sur d’autres sites

Veuillez vous connecter pour commenter

Vous pourrez laisser un commentaire après vous êtes connecté.



Connectez-vous maintenant
×
×
  • Créer...