Aller au contenu

[Cars 2] Thème de Finn McMissile


Messages recommandés

Bonjour à tous,

 

Mon gamin étant fan de ce film, je recherche donc la tablature ou mieux la partition du Thème de Finn McMissile :

 

http://www.youtube.com/watch?v=fHbgR3MaqjA

 

Merci d'avance aux bonnes âmes qui pourraient transcrire.

Lien à poster
Partager sur d’autres sites
  • 4 months later...

Bon, je m'y suis collé...

 

 

 

Juste le thème, faut pas déconner :p

 

E |----------------------------|----------------------------|
B |----------------------------|----------------------------|
G |--1--------3~---------------|--1--------3~---------------|
D |-----3----------------------|-----3----------------------|
A |----------------------------|----------------------------|
E |----------------------------|----------------------------|

----------------------------|----------------|----------------------------|
----------------------------|----------------|----------------------------|
-----1-----1--3--1----------|----------------|--1--------3~---------------|
--3-----3-----------3--5----|--2--5~---------|-----3----------------------|
----------------------------|----------------|----------------------------|
----------------------------|----------------|----------------------------|

----------------------------|----------------------------|----------------|
-----2-----1~---------------|----------------------------|----------------|
--3-------------------------|-----1-----1--3--1----------|--5--3~---------|
----------------------------|--3-----3-----------3--5----|----------------|
----------------------------|----------------------------|----------------|
----------------------------|----------------------------|----------------|

---------------||-------||
---------------||-------||
--5~-3~-1~-0~-o||-------||
--------------o||--3~---||
---------------||-------||
---------------||-------||

Cars 2.zip

Lien à poster
Partager sur d’autres sites
  • 4 weeks later...

Veuillez vous connecter pour commenter

Vous pourrez laisser un commentaire après vous êtes connecté.



Connectez-vous maintenant
×
×
  • Créer...