Aller au contenu
zoutek

[Casimir] L'île aux enfants

Messages recommandés

E |---------|-7-10-|-12-10----------|
B |-----7-8-|------|-------10-10-10-|
G |-7-9-----|------|----------------|
D |---------|------|----------------|
A |---------|------|----------------|
E |---------|------|----------------|

E |-10-8---8-7------7-----------|
B |------8-----8-10---10---8-10-|
G |----------------------9------|
D |-----------------------------|
A |-----------------------------|
E |-----------------------------|

E |---------|-7-10-|-12-10----------|
B |-----7-8-|------|-------10-10-10-|
G |-7-9-----|------|----------------|
D |---------|------|----------------|
A |---------|------|----------------|
E |---------|------|----------------|

E |-10-8---8-7------7-----------|
B |------8-----8-10---10-10-8---|
G |-----------------------------|
D |-----------------------------|
A |-----------------------------|
E |-----------------------------|

E |-0-3---|---0---|-----------0-2-3-2-|
B |-----3-|-1---0-|---0-----0---------|
G |-------|-------|-2---2-0-----------|
D |-------|-------|-------------------|
A |-------|-------|-------------------|
E |-------|-------|-------------------|

E |-0-3---|-----0---|----------------------|
B |-----3-|-1-3---0-|-1-3-1-0--1-3-0-------|
G |-------|---------|----------------2-0-2-|
D |-------|---------|-----------------—----|
A |-------|---------|----------------------|
E |-------|---------|----------------------|

Partager ce message


Lien à poster
Partager sur d’autres sites

xDxD génial merci sa rend super a la gratte :guitare:

 

edit babz : sujet déplacé


Une guitare, des pots, une plage sa c'est des vrais vacances pour moi.

La guitare est le meilleur instrument sur terre!!!!

214.gif

Partager ce message


Lien à poster
Partager sur d’autres sites

Veuillez vous connecter pour commenter

Vous pourrez laisser un commentaire après vous êtes connecté.



Connectez-vous maintenant

×
×
  • Créer...