Aller au contenu

[Chansons marrantes]


Messages recommandés

Salut à tous :cache:

 

Connaissez vous une chanson marrante que l'on peut jouer entre potes pour triper?

Genre les wriggles...

Un truc qui fait rire à tous les coups!

 

Si vous pouvez me passer des tabs et si une vidéo exixte sa serait le top!

 

Merci de m'aider dans ma quête amis musiciens :guitare:[/strike]

Lien à poster
Partager sur d’autres sites

Aaaah cette chanson c'est toute ma jeunesse :D

 

sinon pour les accord c'est tous con ... y'en a que 2 :p

si je me souvien bien c'est (du grave a l'aigue) : 244322 , 466544

Faut verifié pcq j'ai pas ma gratte sous la main...

Lien à poster
Partager sur d’autres sites

Houla, j'en ai plein, laisse moi retrouver mon carnet d'accord et je vois ca. Mais on n'est pas de la même génération, alors ca risque d'être décevant pour toi.

 

Edit : j'en ai une : j'ai la quéquette qui colle (un standard pour les 27-35 ans 8-) )

 

D - A - G, mais ca change souvent d'ordre.

Lien à poster
Partager sur d’autres sites
  • 3 weeks later...

Ca c'est un truc rigolo , meme sio hors sujet , quand tu est dechiré , et ba sa , sa dechire^^

 

 

e---------------------- |

b---------------------- |

g---------------------- |

d---------------------- |

a-0---0---0---0-------|

e---0---0---0---0-2-4|

Lien à poster
Partager sur d’autres sites

Niveau chanson a la con, je connais quelques artistes fort sympathiques :siffle:

 

 

Entres autres : Didier Super, alors ca, c'est vraiment des chansons a la con :top:

 

http://www.radioblogclub.fr/open/135480/didier_super/Didier%20Super%20-%20Y%27en%20a%20marre%20des%20pauvres

http://www.radioblogclub.fr/open/135480/didier_super/Didier%20Super%20-%20Petit%20caniche%2C%20peluche%20pour%20vieux

http://www.radioblogclub.fr/open/135480/didier_super/Didier%20Super%20-%20On%20va%20tous%20crever

 

 

tu peux facilement trouver les accords, par exemple pour "on va tous crever" c'est

 

Accords :

G / Sol : 10 10 12 12 12 10

Em / Mim: 7 7 9 9 8 7

D / Ré : 5 5 7 7 7 5

F / Fa : 8 8 10 10 10 8

 

 

G

On va tous crever

Em

on va tous crever

D G

Ya la fin du monde qui nous guette et nous on fait la fête-e

G

On va tous crever

Em

on va tous crever

D G

La fin du monde qui nous attend et nous on fait la fete tout le temps, oué !

 

G F

Aujourd'hui ya que les très très vieux

G F

Qui ont encore l'espoir de mourir de vieillesse

G F

Les enfants s'ils viennent pas au monde bientot

G F

Ils seront jamais rien faire avec des légos, oui !

 

 

et comme toutes chanson a la con, ca se repete

 

:D)

Lien à poster
Partager sur d’autres sites
  • 4 months later...

|----------------------------------------------------|

B|---------------------------------3-3-------3--------|

G|-------------------------------------5-4-----5-4----|

D|-----------------------2-5---2-5---------3----------|

A|---2-5---2-5---2-5-3-3-----3------------------------|

E|-3-----3-----3--------------------------------------|

 

|----------------------------------------------------|

B|---------------------------------3-3-------3--------|

G|-------------------------------------5-4-----5-4----|

D|-----------------------2-5---2-5---------3----------|

A|---2-5---2-5---2-5-3-3-----3------------------------|

E|-3-----3-----3--------------------------------------|

 

G G C D

voila simple et terrible bonne gratte :guitare:

Lien à poster
Partager sur d’autres sites

Veuillez vous connecter pour commenter

Vous pourrez laisser un commentaire après vous êtes connecté.



Connectez-vous maintenant
×
×
  • Créer...