Aller au contenu

[Christophe Maé] Ça fait mal


Messages recommandés

Bonjour a tous, voila je suis a la recherche de la chanson "Ca fait mal" de Chrsistophe Maé mais version apèges, je l'ai deja en normal mais lui la joue en arpèges et ca ne rend pas du tout pareil, donc si quelqu'un pouvait m'aider ca serait chouette!

Merci d'avance ;)

Lien à poster
Partager sur d’autres sites

moi j'ai trouvé ça sur francetabs.com (http://www.francetabs.com/tab-cours/tablatures-partitions-guitare/tab-guitare.php?m=s&lid=115&tab=ca-fait-mal) :

Ca fait mal

AM F C G
Qu'elle était belle à t'écouter sur ta voix son corps dansé
AM F C G
Dans ces dentelles virevolté l'effet d'un corps de balais
AM F C G
Papa tu as pris la route sans dire adieu
AM F C G
Papa tu as laissé son corps je t'en veut


Refrain :
AM F C G
Ça fait mal de vivre sans toi
AM F C G
Elle a mal et tu ne t'imagines même pas
AM F C G
Comme ça fait mal de rire sans toi
AM F C G
Elle a mal et tu ne reviendras pas



Qu'elle était belle à tes cotes

Dans son regard je voyais

Tu faisais d'elle un compte de fées

Sur toi elle se reposé

Papa tu as pris la route sans dire adieux

Papa tu as laissé son corps je t'en veut


Refrain :

Ça fait mal de vivre sans toi

Elle a mal et tu ne t'imagines même pas

Comme ça fait mal de rire sans toi

Son sourire appelle aux secours

Il et sans amours


Ça fait mal de vivre sans toi

Elle a mal et tu ne t'imagines même pas

Comme ça fait mal de rire sans toi

Elle a mal et tu ne reviendras pas

Lien à poster
Partager sur d’autres sites
  • 2 months later...
  • 5 months later...
  • 2 weeks later...
  • 2 weeks later...

Bonjour !

 

Je trouve cette tablature (arpèges ;) ) bien sympa.

 

Mais d'après moi, ca ne sert à rien de s'embêter avec des arpèges relativement compliqués (qui rendent, cela dit, la chanson bien plus... belle lol) quand on peut faire une chanson avec des accords tout simples (Am-C-G-D, et au moment de "son sourire appelle au secours, il est sans amour'' Am-F-C-G), et qui rendent tout de même la chanson très jolie.

 

Mais bon, en même temps si tu ne chante pas, mieux vaut le faire avec des arpèges =)

 

Bon, j'éspère que j'ai pût t'aider !

 

:guitare: Bonne gratte ! :guitare:

Lien à poster
Partager sur d’autres sites

Voila la vraie de vraie .. je l'ai testé :

 

 

Accorder 1/2 ton en dessous

Intro

E|-----------------------------1---3p1----------------------------------1-|
B|-------1----------1--------3--------------------1----------1--------3---|
G|-----2---2------2---2----2-----2-------2------2---2------2---2----2-----|
D|---2----------2--------0-------------0------2----------2--------0-------|
A|-0----------------------------------------0-----------------------------|
E|------------3----------------------------------------3------------------|


Couplet

E|-----------------------------------------------------------------------------1-|
B|-------1--------------------------1--------------------3-------------------3---|
G|-----2--------------------------0--------------------0-------------------2-----|
D|---2--------------------------2--------------------0-------------------0-------|
A|-0--------------------------3--------------------------------------------------|
E|-------------------------------------------------3-----------------------------|
  Qu'elle était belle        à t'écouter          Sur ta voix son corps dansait

E|--------------------------------------------------------------------1-|
B|-------0h1-1-----------------1------------3-----------------------3---|
G|-----2----------------------------------0-----------------------2-----|
D|---2---------------------0h2----------0-----------------------0-------|
A|-0---------------------3----------------------------------------------|
E|------------------------------------3---------------------------------|
  Dans ses dentelles    Virevoltait  L'effet d'un corps de ballet

E|-----------------------------------------------------1-|
B|-------1--------1---------3------------------------3---|
G|-----2--------0---------0------------------------2-----|
D|---2--------2---------0------------------------0-------|
A|-0--------3--------------------------------------------|
E|--------------------3----------------------------------|
  Papa...         Tu as pris la route sans dire adieu

E|------------------------------------|
B|-------0h1-1--------1-------------3-|
G|-----2--------------------------0---|
D|---2------------0h2-----------0-----|
A|-0------------3---------------------|
E|----------------------------3-------|
  Papa...             Tu as laissé son corps, je t'en veux


Refrain

E|------------------------0-----------------------3p1-|
B|---------------1------1---1------------1------------|
G|-------------2------2----------------0--------------|
D|-----------2-----------------------2----------1-----|
A|---------0-----------------------3-------0----------|
E|------------------1-------------------------0-------|
 Ca fait mal...    de vivre sans toi...

E|------------------------------0-------------------------|
B|--------------1-------------1--------------1----------0-|
G|------------2-------------2-----0--------0----------1---|
D|----------2----------------------------2-----2----2-----|
A|--------0----------------------------3------------------|
E|------------------------1-----------------------0-------|
 Elle a mal et tu ne t'imagines même pas...        Comme ca fait

E|----------------0----------------------3p1-|
B|-------1------1---1-----------1------------|
G|-----2------2---------------0--------------|
D|---2----------------------2----------1-----|
A|-0----------------------3-------0----------|
E|----------1------------------------0-------|
 mal...    de rire sans toi...

E|---------------------------0-----------------------|
B|--------------1----------1------------1----------0-|
G|------------2----------2-----0------0----------1---|
D|----------2-----------------------2-----2----2-----|
A|--------0-----------------------3------------------|
E|---------------------1---------------------0-------|
 Elle a mal et tu ne reviendras pas...      Oh non


Intro bis


Couplet suite

Qu'elle était belle à tes côtés
Dans son regard je voyais
Que tu faisais d'elle un conte de fées
Sur toi elle se reposait

Papa, tu as pris la route sans dire adieu
Papa, tu as laissé son coeur, je t'en veux


Refrain bis


Intro bis
(Papa, tu ne reviendras pas)


Refrain bis (sauf à la fin)

E|---------------------------------------0---------------|
B|-----------1------------------1------1---1-----------0-|
G|---------2------------------0------2---------------1---|
D|-------2------------------2----------------------2-----|
A|-----0------------------3------------------------------|
E|---------------------------------1-------------0-------|
 Son sourire appelle au secours   Il est sans amour

Lien à poster
Partager sur d’autres sites
  • 1 year later...

Veuillez vous connecter pour commenter

Vous pourrez laisser un commentaire après vous êtes connecté.



Connectez-vous maintenant
×
×
  • Créer...