Aller au contenu
Slial

combien de doigts pour fingers picking de Dust in the Wind?

Messages recommandés

Alors, combien de doigts utilisez-vous pour le fingers picking de «Dust in the Wind» de Kansas?

 

2,3, ou 4 ?? pouce, index ou bien pouce, index, majeur, ou bien pouce, index, majeur, annulaire ??

 

voici le début:

 

[C][Cmaj7][Cadd9][C]

[Asus2][Asus4][Am][Asus2]

 

en version tablature:

 

e:-----------------|-----------------|-----------------|-----------------| 
B:-1---------1-----|-0---------0-----|-3---------0-----|-1---------1-----| 
G:-------0-------0-|-------0-------0-|-------0-------0-|-------0-------0-| 
D:-----2-------2---|-----2-------2---|-----2-------2---|-----2-------2---| 
A:-3-------3-------|-3-------3-------|-3-------3-------|-3-------3-------| 
E:-----------------|-----------------|-----------------|-----------------| 

e:-----------------|-----------------|-----------------|-----------------| 
B:-0---------0-----|-3---------3-----|-1---------1-----|-0---------0-----| 
G:-------2-------2-|-------2-------2-|-------2-------2-|-------2-------2-| 
D:-----2-------2---|-----2-------2---|-----2-------2---|-----2-------2---| 
A:-0-------0-------|-0-------0-------|-0-------0-------|-0-------0-------| 
E:-----------------|-----------------|-----------------|-----------------| 

 

 

et pour ceux qui ont fait des cours de guitare... est-ce que c'est mieux de prendre l'habitude de jouer à 3 ou 4 doigts?? :hum:

Partager ce message


Lien à poster
Partager sur d’autres sites

J'ai voté 4, mais regarde ceci :

 

 

Alors, va-t-on contredire Roger Waters? Il aurait voté 3, lui.

 

Alors c'est comme tu le sens.

 

:guitare:

 

Béhèf


Big brother is watching you!

Partager ce message


Lien à poster
Partager sur d’autres sites

Normalement j'utilise 4 doigts pour le finger picking, mais si j'en crois ta tablature la corde de mi aigu n'est pas utilisée donc je garderai mon annulaire de côté, soit 3 doigt (pouce, index, majeur)

Partager ce message


Lien à poster
Partager sur d’autres sites

Perso jle joue avec 5 doigts (mais pas la tablature originale, jrajoute des trucs), mais avec 3 doigts on a l'avantage d'avoir le pouce qui joue la basse en alternance avec les toniques/tierces et toniques/quintes, ce qui en fait la méthode la plus "académique".

 

Ah et poste dans la bonne section la prochaine fois s'il te plait.

 

(et t'as oublié la solution à 5 doigts dans ton sondage, donc j'ai choisi "autre")

Partager ce message


Lien à poster
Partager sur d’autres sites

4 c'est plus simple pour ce morceau que j'ai laissé tombé il y a un bon moment :D)


Un correcteur d’orthographe : Outils,Options,Avancé,cochez : vérifiez l'orthographe lors de la frappe.

Si vous faîtes une faute d'orthographe, le mot sera souligné en rouge, un clic droit sur ce mot vous donnera le bon mot orthographié.

 

Un super luthier à Arras: http://guitartetsens...therie#!atelier

 

Envie de gratter avec moi? Tu es du 62/59? N'hésitez pas à m'envoyer un MP

 

Cherche guitariste débutant / batteur / bassiste / clavieriste pour formation groupe Cover à dIRE sTRAITS

 

http://riki-le-plect...et/?lang=fr De magnifiques médiators

Partager ce message


Lien à poster
Partager sur d’autres sites

3 pour ma part, après lequel est le mieux baaaah...j'dirais simplement de voir avec lequel tu es le plus à l'aise.

d'un côté c'est toujours bien de faire bosser l'annulaire quand on en a l'occasion parce qu'il est difficile à utiliser, et en même temps, si tu peux t'en passer ;)

 

Athena, tu joue avec l'auriculaire en plus :hum:


t4aap7.png

Partager ce message


Lien à poster
Partager sur d’autres sites

En faite j'ai voté 4, mais en la jouant hier, je me suis aperçu que j'en utilise que 3 !!!

 

 

:p

 

 

Edit : Euuuh alors xDxD ... Je viens de la rejouer, et je joue avec trois doigts, sauf sur le Dm, ou j'en utilise 4 !!! xDxD


"Sans la musique, la vie serait une erreur", Nietzsche

Partager ce message


Lien à poster
Partager sur d’autres sites

Veuillez vous connecter pour commenter

Vous pourrez laisser un commentaire après vous êtes connecté.



Connectez-vous maintenant

×
×
  • Créer...