Aller au contenu
SuN

[Comptine] A la claire fontaine

Messages recommandés

A LA CLAIRE FONTAINE                               



E||----------0--0-----0-----|----------0--0-----0----|--0----0--------0--3--0--|
B||--1----1-----1--3--1--3--|--1----1-----1--3--1----|--1----1--3--1-----0-----|
G||----------0-----0-----0--|----------0-----0-------|-------------------------|
D||-------2-----------------|-------2----------------|-------------------------|
A||--3----------------------|--3---------------------|--0----3-----0-----------|
E||-------------------------|------------------------|-------------------0-----|


--3----3--0-----0--------------0-----|----------0--0------0-----|
--1----1-----1-----3--------3-----3--|--1----1-----1--3-1----1--|
-------------------0-----0-----------|--2-----------------------|
-------------------------------------|--------------------------|
--0----3-----0--------2--------------|--0----3-----0------3-----|
-------------------------------------|--------------------------|



--0----0------0-----|--------------------|---------------------||
--1-------3-1----3--|--1--------1--------|-----------1---------||
--------------------|--------0-----0-----|--------2-----2-----*||
--------------------|-----2-----------2--|-----2-----------0--*||
--0----3------------|--3-----------------|--0------------------||
--------------3-----|--------------------|--------------2------||



-------------------||
--1----------------||
--0----------------||
--2----------------||
--3----------------||
-------------------||

 

 

Source : http://guithard.9online.fr/Petit.htm


If Slash's guitar could speak she'd say "I fuckin love you !"

 

Vous aimez Tabs4Acoustic.com ? Aidez-nous !

Devenez fan sur Facebook, suivez-nous sur Twitter, abonnez-vous sur Youtube, devenez supporter

 

t4a_userbar4.png

Partager ce message


Lien à poster
Partager sur d’autres sites

Vas y doucement , repère si tu peux poser un accord , l'astuce est de laisser l'index en case 1 corde de Si dur presque tout le morceau


Un correcteur d’orthographe : Outils,Options,Avancé,cochez : vérifiez l'orthographe lors de la frappe.

Si vous faîtes une faute d'orthographe, le mot sera souligné en rouge, un clic droit sur ce mot vous donnera le bon mot orthographié.

 

Un super luthier à Arras: http://guitartetsens...therie#!atelier

 

Envie de gratter avec moi? Tu es du 62/59? N'hésitez pas à m'envoyer un MP

 

Cherche guitariste débutant / batteur / bassiste / clavieriste pour formation groupe Cover à dIRE sTRAITS

 

http://riki-le-plect...et/?lang=fr De magnifiques médiators

Partager ce message


Lien à poster
Partager sur d’autres sites

Veuillez vous connecter pour commenter

Vous pourrez laisser un commentaire après vous êtes connecté.



Connectez-vous maintenant

×
×
  • Créer...