Aller au contenu
SuN

[Comptine] Une souris verte

Messages recommandés

Une Souris Verte                                 


E||-------|-------|------------------------|------------------------|
B||-------|-------|-----------5------------|-----------5------------|
G||-------|-------|--7--7--7-----7---------|--7--7--7-----7---------|
D||-------|-------|-------------------7----|-------------------7----|
A||-------|-------|------------------------|------------------------|
E||-------|-------|------------------------|------------------------|



-------------------------|-------------------------|------------------------|
--8--7--5--7--8--7--5----|--8--7--5--7--8--7--5----|-----------5------------|
-------------------------|-------------------------|--7--7--7-----7---------|
-------------------------|-------------------------|-------------------7----|
-------------------------|-------------------------|------------------------|
-------------------------|-------------------------|------------------------|



------------------------|-------------------------|-------------------------|
-----------5------------|--------------5----------|--------------5----10----|
--7--7--7-----7---------|--7--7--7--7-------7--7--|--7--7--7--7-------------|
-------------------7----|-------------------------|-------------------------|
------------------------|-------------------------|-------------------------|
------------------------|-------------------------|-------------------------|


        23x             
---------------------||-----------||
--3------------------||-----------||
--------------------*||-----------||
--------------------*||-----------||
---------------------||-----------||
---------------------||-----------||

 

 

Source : http://guithard.9online.fr/Petit.htm


If Slash's guitar could speak she'd say "I fuckin love you !"

 

Vous aimez Tabs4Acoustic.com ? Aidez-nous !

Devenez fan sur Facebook, suivez-nous sur Twitter, abonnez-vous sur Youtube, devenez supporter

 

t4a_userbar4.png

Partager ce message


Lien à poster
Partager sur d’autres sites

Ma première chanson en guitare ^^, TROP FORT !

Partager ce message


Lien à poster
Partager sur d’autres sites

ouais ma première aussi. Euh... Non j'ai fait vive le vent aussi mais j'y arrivais pas trop. celle là est simple ça va, ia juste le couplet où j'arrive pas trop parce que je trouve pas l'air :( fin je sait pas ça fait bizarre je trouve !

Partager ce message


Lien à poster
Partager sur d’autres sites
:top: merci sa me fait trop rire de jouer sa. Et mes pots sont hillares a chaques fois que je leur sort

Une guitare, des pots, une plage sa c'est des vrais vacances pour moi.

La guitare est le meilleur instrument sur terre!!!!

214.gif

Partager ce message


Lien à poster
Partager sur d’autres sites

salut je débute dans la guitare sa veux dire quoi les chiffres 7 , 5 , 8 qui sont dans les notes de ta souris verte normalement ces les doigt???????

 

je me trompe?????

 

vous pouvez m'expliquer

Partager ce message


Lien à poster
Partager sur d’autres sites

Sur la tablature, les chiffres indiquent le n° des cases où tu doit poser les doigts. Les lignes représentent les cordes : de haut en bas --> de la plus aigüe à la plus grave.

 

Pour cette chanson, je te conseille de t'entraîner à placer ton index au niveau de la 5° case, ton majeur au niveau de la 6° case, ton annulaire au niveau de la 7° case et ton auriculaire au niveau de la 8° case (chaque doigt s'occupe de sa case). Ainsi, ta main ne bougera pas pendant toute la chanson, sauf pour les 2 dernières notes (case 10 sur la corde de Si qu'il faudra aller chercher avec l'auriculaire, et case 3 sur la corde de Si qu'il faudra aller chercher avec l'index - là, ta main, elle va se déplacer beaucoup! :D ).

 

Si tu fais de cette façon pour jouer cette chanson très facile, tu prendras la bonne habitude de déplacer ta main le moins possible le long du manche de la guitare. Et ainsi, rendre tes doigts indépendants, les uns par rapports aux autres.

 

Un petit lien pour les cours sur la lecture des tablatures :

 

http://www.tabs4acoustic.com/forum-guitare-acoustique/comment-lire-une-tablature-vt1143.html

 

:guitare:

 

B.F.


Big brother is watching you!

Partager ce message


Lien à poster
Partager sur d’autres sites

et bien!!! Ma troisème musique à la gratte, 3ème parceque Céline de Hugues aufray et francis Cabrel ^^


C'est justement la possibilité De réaliser un Rêve Qui rend la vie intéressente....

Partager ce message


Lien à poster
Partager sur d’autres sites

Veuillez vous connecter pour commenter

Vous pourrez laisser un commentaire après vous êtes connecté.



Connectez-vous maintenant

×
×
  • Créer...