Aller au contenu
babzoo

[Comptines] Au clair de la lune / J'ai du bon tabac

Messages recommandés

Au clair de la lune :

E---------------0----------0---------------
B--1--1--1--3------3---1------3--3---1-----   X2
G------------------------------------------

E------------------------------------------
B--3--3--3--3---------3--1--0--------------
G--------------0--0-------------2--0-------

E---------------0----------0---------------
B--1--1--1--3------3---1------3--3---1-----  
G------------------------------------------

 

J'ai du bon tabac

 

E--------0-----------0--1--1--0------------0-----------0--1--3----
B--1--3-----1--3--3--------------1---1--3-----1--3--3-----------1-


E--3--3--1--0-----0--1--3------3--2--1--0-----0--1--3-------------
B--------------3-----------3---------------3-----------3----------


E--------0-----------0--1--1--0------------0-----------0--1--3----
B--1--3-----1--3--3--------------1---1--3-----1--3--3-----------1-

 

pour Henir dès, je te conseil d'aller voir sur ce site : http://www.abc-tabs.com/search/affiche.php?artist_id=1162

 

en éspèrant que tu y trouvera ton bonheur! :p


() ()

 

(>'.')LAAAaaaaapIIIiiiiiiNNNN !

 

(")_(")

 

*******

Partager ce message


Lien à poster
Partager sur d’autres sites

Et bien, comme je vais garder mon neveu pendant 2 semaines je pense bien lui jouer cela ^^ Merci


C'est justement la possibilité De réaliser un Rêve Qui rend la vie intéressente....

Partager ce message


Lien à poster
Partager sur d’autres sites

Veuillez vous connecter pour commenter

Vous pourrez laisser un commentaire après vous êtes connecté.



Connectez-vous maintenant

×
×
  • Créer...