Aller au contenu
  • 0
nightmare

[Dethstars] Alone

Question

objet:Cat deathstars pouvez vous m'aider

 

Bonjour j'ai commencé la guitare depuis 1 an et je voudrai jouer la musique cat de deathstars mais malheureusement je ne trouve que l'intro que j'ai reproduit a l'oreille car la tab de cette musique n'est pas diffusé sur le net pouvez vous m'aider svp ?


NightMare

Partager ce message


Lien à poster
Partager sur d’autres sites

6 réponses à cette question

Messages recommandés

  • 0

Salut,

 

un p'tit tour dans la section présentation serait pas de refus :top:

 

Merci

Pascool :guitare:


Si un problème a une solution, s'inquiéter ne sert à rien. S'il n'en a pas, s'inquiéter ne changera rien...

Partager ce message


Lien à poster
Partager sur d’autres sites
  • 0

objet: pouvez vous me donner votre avi svp

 

Bonjour je vient d'essayer de reproduire les tablature de la musique de cat deathstars que l'on peu trouver que sur youtube

 

cat deathstars

 

 

Intro

X2

|----------------------------------|-------------------------------|

|----------------------------------|-------------------------------|

|----------------------------------|-------------------------------|

|----------------------------------|-------------------------------|

|----6----6----6-----6---------6-|----8-----8------8------------|

|--4---4----4-----4-----4--------|-6-----6------6-----6-7-6/4-|

 

le tout fois 2

 

 

 

1er parti

 

|-------------------------------------------------------|

|-------------------------------------------------------|

|-------------------------------------------------------|

|-------------------------------------------------------|

|-6--666--66--6666---66---6--666--66--6666--6--|

|-4--444--44--4444---44---4--444--44--4444--4--|

 

|----------------------------|

|----------------------------|

|----------------------------|

|----------------------------|

|---66--66--66--66--6--6-| X2

|---44--44--44--44--4--4-|

 

|-------------------------------------------------------|

|-------------------------------------------------------|

|-------------------------------------------------------|

|-------------------------------------------------------|

|-6--666--66--6666---66---6--666--66--6666--6--|

|-4--444--44--4444---44---4--444--44--4444--4--|

 

Intro

+

|----------------|

|-----------------|

|-----------------|

|-----------------|

|--66---X---66--|

|--44---X---44--| X8

 

2eme parti

 

|------------------------------------

|------------------------------------

|------------------------------------

|-------------------------------------

|--66--6--66666--66--6--6--6--6--

|--44--4--44444--44--4--4--4--4--

 

 

pouvez vous me dire ce que vous en penser pour que je puisse l'améliore merci


NightMare

Partager ce message


Lien à poster
Partager sur d’autres sites
  • 0

je peu pas mettre de lien car ce forum m'en empèche donc va sur youtube et tape cat deathstars c la première


NightMare

Partager ce message


Lien à poster
Partager sur d’autres sites
  • 0

:!: PS: ... et en plus, je te rappelle que les chansons doivent être demandé en inscrivant la demande dans le sujet du message de cette façon: [Nom artiste] Titre chanson» ...merci de le faire à l'avenir! ;) (là je l'ai corrigé! ) :)

 

 

 

aussi... le forum n'empêche pas de mettre de liens voyon!!

 

la preuve:

;)

Partager ce message


Lien à poster
Partager sur d’autres sites
  • 0

PS: ... je te rappelle que les chansons doivent être demandé en inscrivant la demande dans le sujet du message de cette façon: [Nom artiste] Titre chanson»

 

comme là, je sais pas si tu demande de l'aide pour trouver des partitions de cat deathstars, ou si le titre de la chansons est vraiment... pouvez vous m'aider :x: lol

 

...donc, merci de le faire à l'avenir! tu auras des réponses plus rapidement!! ;) (là je l'ai corrigé) :rolleyes:

 

 

 

édit: ..ok, si la chanson est : Jesus on Extasy-Alone ...

hé bien, il y a déjà une demande à ce sujet, quelque part!!! :rolleyes:

 

je te rapelle donc que tu dois chercher dans les tabs répondu ET dans la section de «recherche tabs» pour voir si la demande n'a pas déjà été faite, et même répondu!!! :siffle:

Partager ce message


Lien à poster
Partager sur d’autres sites

Veuillez vous connecter pour commenter

Vous pourrez laisser un commentaire après vous êtes connecté.



Connectez-vous maintenant

×
×
  • Créer...