Aller au contenu
Baka

[Elfen Lied] Lilium

Messages recommandés

Sa faisait longtemps que l'on avait pas eu un peu de classique à proposer

Au programme ce soir, le thème principal du Manga Elfen Lied, à jouer au classique

 

C'est censé être la version difficile, mais finalement pas si effrayant que ca :D

 

[daily]

[/daily]

Lilium jouée en version aigu, uniquement trouvable avec Guitar pro : Ici

 

Lilium *Hard Version*
~Elfen Lied~
Composed By: Kumiko Oguro
Arranged By: Justin Lincoln

    H.           E  E     S S S S S S S S S S S S S S S S S S S S S S S S
E||------------------4--|--------------------0-----0-----0-----------4-----|
B||---------------2-----|--4-----4-------------4---------------------------|
G||---------------------|------5---5-------5-----5-----6---6---6---6---2-1-|
D||---------------------|----6-------6---6-----------6-------6---6---------|
A||---------------------|--3-----------------------4-----------------------|
E||---------------------|--------------4-----------------------4-----0-----|

 S S S S S S S S S S S S S S S S S S
--------------------0-----------0-----|
--4-----4-------------4---7-----------|
------5---5-------5-----5-----6-----1-|
----6-------6---6-----------6-----2---|
--3-----------------------4-----------|
--------------4-----------------------|

 S S S S S S S S S S S S S S S S S S S S S S S S
--------------------------------------------------|
--2-----2---------4-0---------------------2-------|
------2---2-------------2-4-----4-----------2---1-|
----2-------2---4-----1-------6---6-----3---------|
--0-----------------0-------6-------6---------4---|
--------------2-----------4-----------1-----4-----|

 S S S S S S S. S. S. S. S S S S S S E.  S. S.
--------------------0--2---------------------4--|
------0-2--------4--------5-----------4---------|
--2---------1-------------------6-----5---6-----|
----4-----2---4---------------6---6-------------|
--------------6-------------4-------4-----------|
--2-----0-----------------4-----------4---------|

 S S S S S S S S S S S S S S S S S S S S S S S S
--------------------0-----0-----0-----------4-----|
--4-----4-------------4---------------------------|
------5---5-------5-----5-----6---6---6---6---2-1-|
----6-------6---6-----------6-------6---6---------|
--3-----------------------4-----------------------|
--------------4-----------------------4-----0-----|

 S S S S S S S S S S S S S S S S S S
--------------------0-----------0-----|
--4-----4-------------4---7-----------|
------5---5-------5-----5-----6-----1-|
----6-------6---6-----------6-----2---|
--3-----------------------4-----------|
--------------4-----------------------|

 S S S S S S S S S S S S S S S S S S S S S S S S
--------------------------------------------------|
--2-----2---------4-0---------------------2-------|
------2---2-------------2-4-----4-----------2---1-|
----2-------2---4-----1-------6---6-----3---------|
--0-----------------0-------6-------6---------4---|
--------------2-----------4-----------1-----4-----|

 S S S S S S S S S S S S S S S S S S
------2-0-------------------4-0-------|
------------4-------------------2-----|
--2-----------6---5-3---5-6-------1---|
----4-----2-------------------------2-|
----------------6-----6---4-----------|
--2-----3-----4-----4-----------------|

 S. S. S. S. S S S S S S S S S S S S S S S S S S
-----1--2--4--5---0-----5-4-5-7-0---4-2---0-------|
--------------------4-0-----------4-2-------4-----|
----------------2-----------------------2-----5-2-|
--------------------------------------1-----------|
--4---------------4-2-----------0-----------------|
--------------2-----------0-----------------4-----|

 S. S. S. S. S S S S S S S S S S S S S S S S S S    S S S S S S E.  S. S.
-----1--2--4--5---0-----5-4-5-7-0---4-3---0-------|---------------------4--|
--2-----------------4-0---------------------4---2-|--5---------7-4---2-----|
----------------2-----------------2-----------0---|------6-----------------|
----------------------------------------2---------|----6-----6---6---------|
--4---------------4-2-----------0-----1-----------|--------4-----3---------|
--------------2-----------0-2-4-------------------|--4---------------------|

 S S S S S S S S S S S S S S S S S S S S S S S S
--------------------0-----0-----0-----------4-----|
--4-----4-------------4---------------------------|
------5---5-------5-----5-----6---6---6---6---2-1-|
----6-------6---6-----------6-------6---6---------|
--3-----------------------4-----------------------|
--------------4-----------------------4-----0-----|

 S S S S S S S S S S S S S S S S S S
--------------------0-----------0-----|
--4-----4-------------4---7-----------|
------5---5-------5-----5-----6-----1-|
----6-------6---6-----------6-----2---|
--3-----------------------4-----------|
--------------4-----------------------|

 S S S S S S S S S S S S S S S S S S S S S S S S
--------------------------------------------------|
--2-----2---------4-0---------------------2-------|
------2---2-------------2-4-----4-----------2---1-|
----2-------2---4-----1-------6---6-----3---------|
--0-----------------0-------6-------6---------4---|
--------------2-----------4-----------1-----4-----|

 S S S S S S S. S. S. S. S S S S S S E.  S. S.
--------------------0--2---------------------4--|
------0-2--------4--------5-----------4---------|
--2---------1-------------------6-----5---6-----|
----4-----2---4---------------6---6-------------|
--------------6-------------4-------4-----------|
--2-----0-----------------4-----------4---------|

 S S S S S S S S S S S S S S S S S S S S S S S S
--------------------0-----0-----0-----------4-----|
--4-----4-------------4---------------------------|
------5---5-------5-----5-----6---6---6---6---2-1-|
----6-------6---6-----------6-------6---6---------|
--3-----------------------4-----------------------|
--------------4-----------------------4-----0-----|

 S S S S S S S S S S S S S S S S S S
--------------------0-----------0-----|
--4-----4-------------4---7-----------|
------5---5-------5-----5-----6-----1-|
----6-------6---6-----------6-----2---|
--3-----------------------4-----------|
--------------4-----------------------|

 S S S S S S S S S S S S S S S S S S S S S S S S
--------------------------------------------------|
--2-----2---------4-0---------------------2-------|
------2---2-------------2-4-----4-----------2---1-|
----2-------2---4-----1-------6---6-----3---------|
--0-----------------0-------6-------6---------4---|
--------------2-----------4-----------1-----4-----|

 S S S S S S S. S. S. S. S S S S S S Q.
--------------------0--2---------------------|
------0-2--------4--------5-----------4------|
--2---------1-------------------6-----5------|
----4-----2---4---------------6---6----------|
--------------6-------------4-------4--------|
--2-----0-----------------4-----------4------|

   AH      AH      AH        AH    AH
    Q       Q       Q.        E     H
------------16--------------------------------||
----14--------------16--------17----17--------||
----------------------------------------------||
----------------------------------------------||
----------------------------------------------||
----------------------------------------------||

 

Source : GameTabs


Sa Grandeur, le Vicompte du Domaine Floodesque

Jam en ligne !! <---

Partager ce message


Lien à poster
Partager sur d’autres sites

waaaaaaaaaaaaaahhh trop la classe faut trop que je l'esseye celle la meme si j'ai pas une guitare classique snif:snif: .En tout cas elle est trop belle cette chanson :love:


Beat on the brat

Beat on the brat

Beat on the brat with a baseball bat

Oh yeah, oh yeah, uh-oh.

Partager ce message


Lien à poster
Partager sur d’autres sites

Fiouuu trop belle la chanson...faut dire qu'elle est magnifiquement bien jouée...ah quand j'aurais ce niveau...et ben c'est pas arriver :D


zaitchevmx5ld4.jpg

Partager ce message


Lien à poster
Partager sur d’autres sites

J'adore ce manga et cette chanson . . .

 

Sur internet, (youtube) j'ai cherché et je suis tombée dessus ce lien. . . très bien expliqué (en anglais ^^ )mais je me suis traduis le tout :)

 

 

Un peu plus simple que la façon de jouer la ;) mais moi étant débutante j'arrive à refaire en partie (avec un peu de mal car je ne vais pas assez vite) mais c'est un début.

 

Bisous


Pauline et ses Frisettes ^^

Partager ce message


Lien à poster
Partager sur d’autres sites

tout simplement magnifique ! :) ( l'oppenning de cet anime est tout simplement sublime, à regarder obligatoirement, même pour ceux qui n'aiment pas les mangas ! ;) ) Merci encore


fille du vent et de la solitude, soeur du sourire et cousine des larmes, le silence de ton souffle qui se ralentit ...

Partager ce message


Lien à poster
Partager sur d’autres sites

Merci pour le post, J'aime bien c joli http://www.youtube.com/watch?v=wsR8tY2psmw dommage que c trop dur en aigu j arrive pas a le jouer.

 

Pour ceux qui sont + balaise telecharger le logiciel gratuit Tuxguitar il permet de lire le fichier gp3 pour la version aigu, il peut aussi le convertir en texte et ça donne ça :

 

 

 

Track 1: ??????????????

B|-----9---------------------------|-----9-------------------7-------|---------------------4---0-------|
F#|-7-------9-----------10--10------|-7-------9-----------10------10--|-7---------------------------3---|
D|-----------------6---------------|-----------------6---------------|-----6---4---2---4---------------|
A|-------------6---------------7---|-------------6-------------------|-0-------------------------------|
E|---------8---------------9-------|---------8---------------9-------|---------------------------------|
B|---------------------------------|---------------------------------|---------------------------------|


B|---------------------------------|--------------------------7---|--------------------------9---|
F#|-5-------------------7-----------|---------7----7---9---10------|-10----------10--9----7-------|
D|-----4-------------------7-------|-7---9------------------------|---------11------10-----------|
A|---------7---6---8-----------11--|------------------------------|-----11----------11-----------|
E|-4---------------9---------------|------------------------------|------------------------------|
B|---------------------------------|-7------------8---------------|-9---------------9------------|


B|-----------------------------9---|-----------------7---------------|-------------4---0---------------|
F#|-9-----------10--10------7-------|-9-----------10------10--7-------|---------------------3---5-------|
D|---------6-----------------------|---------6-------------------6---|-4---2---4-------------------4---|
A|-----6---------------7-----------|-----6-------------------0-------|---------------------------------|
E|-8---------------9---------------|-8---------------9---------------|-------------------------4-------|
B|---------------------------------|---------------------------------|---------------------------------|


B|-----------------------------7---|-5-------------------------------|-----9---10----------10--9---|
F#|-------------7-------------------|-----9---7-------------------11--|-12----------10--9-----------|
D|-----------------7-------7-------|-------------10--8---10--11------|-------------------------9---|
A|-7---6---8-----------11----------|---------------------------------|---------9---------------7---|
E|---------9-----------------------|-----------------8-------9-------|-----------------7-----------|
B|-------------------------7-------|-8-------9-----------------------|-----------------------------|


B|-12------9---8-------------------|----------------------|------------9---|-----------------------------9---|
F#|-----10------7---10--9---7---10--|---------12--9---9----|-9------7-------|-9-----------10--10------7-------|
D|-------------8-------------------|-----11------10--10---|-10-------------|---------6-----------------------|
A|-------------7-------------------|-11----------11--11---|-11-------------|-----6---------------7-----------|
E|-----9---------------------------|----------------------|----------------|-8---------------9---------------|
B|---------------------8-------9---|-------------9---9----|-9--------------|---------------------------------|


B|-----------------7---------------|-------------4---0---------------|-----------------------------7---|
F#|-9-----------10------10--7-------|---------------------3---5-------|-------------7-------------------|
D|---------6-------------------6---|-4---2---4-------------------4---|-----------------7-------7-------|
A|-----6-------------------0-------|---------------------------------|-7---6---8-----------11----------|
E|-8---------------9---------------|-------------------------4-------|---------9-----------------------|
B|---------------------------------|---------------------------------|-------------------------7-------|


B|-5-------------------------------|----------------|
F#|-----9---7-----------------------|---------2------|
D|-------------10--8---10--11------|---------2------|
A|-----------------------------9---|---------4------|
E|-----------------8-------9-------|-12--11---------|
B|-8-------9-----------------------|---------2------|





Track 2: ????????

B|-----9---------------------------|-----9-------------------7-------|---------------------4---0-------|
F#|-7-------9-----------10--10------|-7-------9-----------10------10--|-7---------------------------3---|
D|-----------------6---------------|-----------------6---------------|-----6---4---2---4---------------|
A|-------------6---------------7---|-------------6-------------------|-0-------------------------------|
E|---------8---------------9-------|---------8---------------9-------|---------------------------------|
B|---------------------------------|---------------------------------|---------------------------------|


B|---------------------------------|--------------------------7---|--------------------------9---|
F#|-5-------------------7-----------|---------7----7---9---10------|-10----------10--9----7-------|
D|-----4-------------------7-------|-7---9------------------------|---------11------10-----------|
A|---------7---6---8-----------11--|------------------------------|-----11----------11-----------|
E|-4---------------9---------------|------------------------------|------------------------------|
B|---------------------------------|-7------------8---------------|-9---------------9------------|


B|-----------------------------9---|-----------------7---------------|-------------4---0---------------|
F#|-9-----------10--10------7-------|-9-----------10------10--7-------|---------------------3---5-------|
D|---------6-----------------------|---------6-------------------6---|-4---2---4-------------------4---|
A|-----6---------------7-----------|-----6-------------------0-------|---------------------------------|
E|-8---------------9---------------|-8---------------9---------------|-------------------------4-------|
B|---------------------------------|---------------------------------|---------------------------------|


B|-----------------------------7---|-5-------------------------------|-----9---10----------10--9---|
F#|-------------7-------------------|-----9---7-------------------11--|-12----------10--9-----------|
D|-----------------7-------7-------|-------------10--8---10--11------|-------------------------9---|
A|-7---6---8-----------11----------|---------------------------------|---------9---------------7---|
E|---------9-----------------------|-----------------8-------9-------|-----------------7-----------|
B|-------------------------7-------|-8-------9-----------------------|-----------------------------|


B|-12------9---8-------------------|----------------------|------------9---|-----------------------------9---|
F#|-----10------7---10--9---7---10--|---------12--9---9----|-9------7-------|-9-----------10--10------7-------|
D|-------------8-------------------|-----11------10--10---|-10-------------|---------6-----------------------|
A|-------------7-------------------|-11----------11--11---|-11-------------|-----6---------------7-----------|
E|-----9---------------------------|----------------------|----------------|-8---------------9---------------|
B|---------------------8-------9---|-------------9---9----|-9--------------|---------------------------------|


B|-----------------7---------------|-------------4---0---------------|-----------------------------7---|
F#|-9-----------10------10--7-------|---------------------3---5-------|-------------7-------------------|
D|---------6-------------------6---|-4---2---4-------------------4---|-----------------7-------7-------|
A|-----6-------------------0-------|---------------------------------|-7---6---8-----------11----------|
E|-8---------------9---------------|-------------------------4-------|---------9-----------------------|
B|---------------------------------|---------------------------------|-------------------------7-------|


B|-5-------------------------------|----------------|
F#|-----9---7-----------------------|---------2------|
D|-------------10--8---10--11------|---------2------|
A|-----------------------------9---|---------4------|
E|-----------------8-------9-------|-12--11---------|
B|-8-------9-----------------------|---------2------|





Track 3: ?????????????

B|-----9---------------------------|-----9-------------------7-------|---------------------4---0-------|
F#|-7-------9-----------10--10------|-7-------9-----------10------10--|-7---------------------------3---|
D|-----------------6---------------|-----------------6---------------|-----6---4---2---4---------------|
A|-------------6---------------7---|-------------6-------------------|-0-------------------------------|
E|---------8---------------9-------|---------8---------------9-------|---------------------------------|
B|---------------------------------|---------------------------------|---------------------------------|


B|---------------------------------|--------------------------7---|--------------------------9---|
F#|-5-------------------7-----------|---------7----7---9---10------|-10----------10--9----7-------|
D|-----4-------------------7-------|-7---9------------------------|---------11------10-----------|
A|---------7---6---8-----------11--|------------------------------|-----11----------11-----------|
E|-4---------------9---------------|------------------------------|------------------------------|
B|---------------------------------|-7------------8---------------|-9---------------9------------|


B|-----------------------------9---|-----------------7---------------|-------------4---0---------------|
F#|-9-----------10--10------7-------|-9-----------10------10--7-------|---------------------3---5-------|
D|---------6-----------------------|---------6-------------------6---|-4---2---4-------------------4---|
A|-----6---------------7-----------|-----6-------------------0-------|---------------------------------|
E|-8---------------9---------------|-8---------------9---------------|-------------------------4-------|
B|---------------------------------|---------------------------------|---------------------------------|


B|-----------------------------7---|-5-------------------------------|-----9---10----------10--9---|
F#|-------------7-------------------|-----9---7-------------------11--|-12----------10--9-----------|
D|-----------------7-------7-------|-------------10--8---10--11------|-------------------------9---|
A|-7---6---8-----------11----------|---------------------------------|---------9---------------7---|
E|---------9-----------------------|-----------------8-------9-------|-----------------7-----------|
B|-------------------------7-------|-8-------9-----------------------|-----------------------------|


B|-12------9---8-------------------|----------------------|------------9---|-----------------------------9---|
F#|-----10------7---10--9---7---10--|---------12--9---9----|-9------7-------|-9-----------10--10------7-------|
D|-------------8-------------------|-----11------10--10---|-10-------------|---------6-----------------------|
A|-------------7-------------------|-11----------11--11---|-11-------------|-----6---------------7-----------|
E|-----9---------------------------|----------------------|----------------|-8---------------9---------------|
B|---------------------8-------9---|-------------9---9----|-9--------------|---------------------------------|


B|-----------------7---------------|-------------4---0---------------|-----------------------------7---|
F#|-9-----------10------10--7-------|---------------------3---5-------|-------------7-------------------|
D|---------6-------------------6---|-4---2---4-------------------4---|-----------------7-------7-------|
A|-----6-------------------0-------|---------------------------------|-7---6---8-----------11----------|
E|-8---------------9---------------|-------------------------4-------|---------9-----------------------|
B|---------------------------------|---------------------------------|-------------------------7-------|


B|-5-------------------------------|----------------|
F#|-----9---7-----------------------|---------2------|
D|-------------10--8---10--11------|---------2------|
A|-----------------------------9---|---------4------|
E|-----------------8-------9-------|-12--11---------|
B|-8-------9-----------------------|---------2------|





Track 4: ?????

B|-----9---------------------------|-----9-------------------7-------|---------------------4---0-------|
F#|-7-------9-----------10--10------|-7-------9-----------10------10--|-7---------------------------3---|
D|-----------------6---------------|-----------------6---------------|-----6---4---2---4---------------|
A|-------------6---------------7---|-------------6-------------------|-0-------------------------------|
E|---------8---------------9-------|---------8---------------9-------|---------------------------------|
B|---------------------------------|---------------------------------|---------------------------------|


B|---------------------------------|--------------------------7---|--------------------------9---|
F#|-5-------------------7-----------|---------7----7---9---10------|-10----------10--9----7-------|
D|-----4-------------------7-------|-7---9------------------------|---------11------10-----------|
A|---------7---6---8-----------11--|------------------------------|-----11----------11-----------|
E|-4---------------9---------------|------------------------------|------------------------------|
B|---------------------------------|-7------------8---------------|-9---------------9------------|


B|-----------------------------9---|-----------------7---------------|-------------4---0---------------|
F#|-9-----------10--10------7-------|-9-----------10------10--7-------|---------------------3---5-------|
D|---------6-----------------------|---------6-------------------6---|-4---2---4-------------------4---|
A|-----6---------------7-----------|-----6-------------------0-------|---------------------------------|
E|-8---------------9---------------|-8---------------9---------------|-------------------------4-------|
B|---------------------------------|---------------------------------|---------------------------------|


B|-----------------------------7---|-5-------------------------------|-----9---10----------10--9---|
F#|-------------7-------------------|-----9---7-------------------11--|-12----------10--9-----------|
D|-----------------7-------7-------|-------------10--8---10--11------|-------------------------9---|
A|-7---6---8-----------11----------|---------------------------------|---------9---------------7---|
E|---------9-----------------------|-----------------8-------9-------|-----------------7-----------|
B|-------------------------7-------|-8-------9-----------------------|-----------------------------|


B|-12------9---8-------------------|----------------------|------------9---|-----------------------------9---|
F#|-----10------7---10--9---7---10--|---------12--9---9----|-9------7-------|-9-----------10--10------7-------|
D|-------------8-------------------|-----11------10--10---|-10-------------|---------6-----------------------|
A|-------------7-------------------|-11----------11--11---|-11-------------|-----6---------------7-----------|
E|-----9---------------------------|----------------------|----------------|-8---------------9---------------|
B|---------------------8-------9---|-------------9---9----|-9--------------|---------------------------------|


B|-----------------7---------------|-------------4---0---------------|-----------------------------7---|
F#|-9-----------10------10--7-------|---------------------3---5-------|-------------7-------------------|
D|---------6-------------------6---|-4---2---4-------------------4---|-----------------7-------7-------|
A|-----6-------------------0-------|---------------------------------|-7---6---8-----------11----------|
E|-8---------------9---------------|-------------------------4-------|---------9-----------------------|
B|---------------------------------|---------------------------------|-------------------------7-------|


B|-5-------------------------------|----------------|
F#|-----9---7-----------------------|---------2------|
D|-------------10--8---10--11------|---------2------|
A|-----------------------------9---|---------4------|
E|-----------------8-------9-------|-12--11---------|
B|-8-------9-----------------------|---------2------|

Partager ce message


Lien à poster
Partager sur d’autres sites

Veuillez vous connecter pour commenter

Vous pourrez laisser un commentaire après vous êtes connecté.



Connectez-vous maintenant

×
×
  • Créer...