Aller au contenu

[Embrasse moi Lucile] Freeway


Messages recommandés

http://www.youtube.c...ed/YeQIo81Zef0

 

Guitare solo :Impro sur pentatonique mineure de Mi
Guitare rythmique: Mi Ré La (Do) en power chord pour tous
Intro :
													 ______ ______
													 |1	 |2
Mi											 La Ré								 Mi											 La Ré
e||------------------|--------------||-----------------|------------------|-------------|
B||------------------|-----------3--||-----------------|------------------|-----------3-|
G||*-----------------|-----------2-*||---------4-------|------------------|-----------2-|
D||*-----------------|---------2-0-*||---5p6p7---------|------------------|---------2-0-|
A||--2-2-2-2-2-2-2-2-|-2-2-2-2-0----||-7---------5-6-7-|--2-2-2-2-2-2-2-2-|-2-2-2-2-0---|
E||--0-0-0-0-0-0-0-0-|-0-0-0-0------||-----------------|--0-0-0-0-0-0-0-0-|-0-0-0-0-----|
	 Mi							 Si7 Mi7				
e|------------------|------------|
B|------------------|------------|
G|------------------|-------2----|
D|------------------|-------1----|
A|--2-2-2-2-2-2-2-2-|---0-1-2--2-|
E|--0-0-0-0-0-0-0-0-|-3--------0-|
Mi									 La															
Ouh viens je t'emmène, on va faire un tour sur l'autoroute
Ré Mi
Freeway
Mi																		 La								 Ré Mi
Ouh rien que le vent et toi serrée contre moi dans le soleil (the sun)
Mi						 La		 Si				 La		 Mi
Ouh la plage est là, on va profiter des jours de l'été
La7													 Si					 Do							 Si
Plus tard nous aurons des souvenirs à chanter, "rest the day, yesterday"
Refrain :
La7					 Mi					 Ré Mi
Freeway, freeway, ma moto va t'emporter
La7	 Ré	 Do					 Ré Mi
Freeway, freeway, va-t-en, sans s'arrêter
Instrumental
Mi											 La							
Ouh viens je t'emmène, on va faire un tour sur l'autoroute
Ré Mi
Freeway
Mi												 La														 Ré Mi
Ouh rien que le vent et toi serrée contre moi dans le soleil (the sun)
La7							 Si					 La					 Mi
Ouh la plage est là, on va profiter des jours de l'été
La7									 Si								 Do							 Si
Plus tard nous aurons des souvenirs à chanter, "rest the day, yesterday
Refrain :
La		 Mi										 Ré Mi
Freeway, freeway, ma moto va t'emporter
La		 Ré		 Do					 Ré Mi
Freeway, freeway, va-t-en, sans s'arrêter
Solo
La								 Si				 la					 Mi
Ouh la plage est là, on va profiter des jours de l'été
La7									 Si								 Do							 Si
Plus tard nous aurons des souvenirs à chanter, "rest the day, yesterday
Refrain :
La		 Mi										 Ré Mi
Freeway, freeway, ma moto va t'emporter
La		 Ré		 Do	 Ré	 Mi
Freeway, freeway, va-t-en, sans s'arrêter

La							 Mi
Freeway, freeway, ce soir, je veux rouler
La											 Ré			 Mi7
Freeway, freeway, ce soir, je veux t'aimer
La7					 Mi
Freeway, freeway, ma moto va t'emporter
La7					 Do	 Ré	 Mi
Freeway, freeway, va-t-en, sans s'arrêter
La							 Mi
Freeway, freeway, ce soir, je veux rouler
La											 Ré			 Mi7
Freeway, freeway, ce soir, je veux t'aimer
Mi Sol Ré Mi

Merci Toffy et Tizef

Modifié par JEUSDI
Lien à poster
Partager sur d’autres sites

Veuillez vous connecter pour commenter

Vous pourrez laisser un commentaire après vous êtes connecté.



Connectez-vous maintenant
×
×
  • Créer...