Aller au contenu
rocknfolk69

[Ennio Morricone] Il était une fois dans l'ouest

Messages recommandés

Bonjour! 8-)

 

 

Voici la tabs du theme de l'homme a lharmonica dans il etait une fois dans l'ouest :training: qui peut ce jouer en acoustic ou avec une electrique saturée (ou on laisse raisonertoutes les notes)

 

 

--------------------------------------------------------------------------------------------

----------------------------------0---------------------------------------------------------

-------------------------------2--------------------0-2-2--------------------2-------------

------2-------------------------------2--0--2---3--------0-0--2-0----0---------------------

---0-----2--2--3-2-0-2-0--------------------------------------------3---3--- 2-------

--------------------------------------------------------------------------------------------

 

 

voila apporttez vos modifs si possible svp! :zik::hum:


Aime la gratte

Partager ce message


Lien à poster
Partager sur d’autres sites

merci , en passant c'est un bon film


garde tes amis proche de toi et tes ennemis encores plus proche

Partager ce message


Lien à poster
Partager sur d’autres sites

voilà une autre version pour ceux que ça intéresse:

 

Il Etait Une Fois Dans L'ouest                          


Chant

E||--------------------||--------------------|----------------------|
B||--------------------||--------------------|----------------------|
G||--------------------||*-------------------|----------------------|
D||--------------------||*--2----------------|--2----3----2----0----|
A||--------------------||--------------------|----------------------|
E||-----------3--------||--------------------|----------------------|



-------------------|--------------------|-----------1--------|
-------------------|--------------------|--------------------|
-------------------|--------------------|--2-----------------|
-------------------|--------------------|--------------------|
--3----------------|--L--------3--------|--------------------|
-------------------|--------------------|--------------------|



--L--------0---------|--0----------------|--L-----------------|
----------------3----|-------------------|-----------3--------|
---------------------|-------------------|--------------------|
---------------------|-------------------|--------------------|
---------------------|-------------------|--------------------|
---------------------|-------------------|--------------------|



--------------------|----------------------|-------------------|
--3--------1--------|--L----0----1---------|-------------------|
--------------------|-----------------2----|--0----------------|
--------------------|----------------------|-------------------|
--------------------|----------------------|-------------------|
--------------------|----------------------|-------------------|



--------------------|--------------------|--------------------|
--------------------|--------------------|--------------------|
--L--------0--------|--2-----------------|--------------------|
--------------------|--------------------|-----------0--------|
--------------------|-----------3--------|--L-----------------|
--------------------|--------------------|--------------------|



-------------------|----------------------|---------------------|
-------------------|----------------------|---------------------|
-------------------|-------2----2---------|---------------------|
--2----------------|--2--------------2----|--2-------------2----|
-------------------|----------------------|-----------3---------|
-------------------|----------------------|---------------------|



----------------------|--------------------|----------------------|
-------0--------------|--------------------|-------1----1---------|
------------2---------|--------------------|----------------------|
--2--------------2----|--2------------2----|--3--------------3----|
----------------------|--------------------|----------------------|
----------------------|--------------------|----------------------|



----------------------|-----------0--------|--L-----------------|
-------1----1---------|--------------------|---------------3----|
----------------------|--0-----------------|--------------------|
--4--------------3----|--------------------|--------------------|
----------------------|--------------------|--------------------|
----------------------|--------------------|--------------------|



----------------------|----------------------|-------------------|
--3----1----1----0----|--3----1----1----0----|-------------------|
----------------------|----------------------|--2----------------|
----------------------|----------------------|-------------------|
----------------------|----------------------|-------------------|
----------------------|----------------------|-------------------|



--4g5------------3----|--3----1----1----0----|--3----1----1----0----|
----------------------|----------------------|----------------------|
----------------------|----------------------|----------------------|
----------------------|----------------------|----------------------|
----------------------|----------------------|----------------------|
----------------------|----------------------|----------------------|



--0----------------|--------------------|-------------------|
-------------------|--------------------|-------------------|
-------------------|--------------------|-------------------|
-------------------|--------------------|--2----------------|
-------------------|--------------------|-------------------|
-------------------|-----------3--------|-------------------|



----------------------|-------------------|--------------------|
----------------------|-------------------|--------------------|
----------------------|-------------------|--------------------|
--2----3----2----0----|-------------------|--------------------|
----------------------|--3----------------|--L--------3--------|
----------------------|-------------------|--------------------|



-----------1--------|--L--------0---------|--0----------------|
--------------------|----------------3----|-------------------|
--2-----------------|---------------------|-------------------|
--------------------|---------------------|-------------------|
--------------------|---------------------|-------------------|
--------------------|---------------------|-------------------|



--L-----------------|--------------------|----------------------|
-----------3--------|--3--------1--------|--L----0----1---------|
--------------------|--------------------|-----------------2----|
--------------------|--------------------|----------------------|
--------------------|--------------------|----------------------|
--------------------|--------------------|----------------------|



-------------------|--------------------|-----------1--------|
-------------------|--------------------|--------------------|
--0----------------|--L--------0--------|--2-----------------|
-------------------|--------------------|--------------------|
-------------------|--------------------|--------------------|
-------------------|--------------------|--------------------|



--------------------|--0----------------|--L-----------------|
--3------------1----|-------------------|--------------------|
--------------------|-------------------|-----------0--------|
--------------------|-------------------|--------------------|
--------------------|-------------------|--------------------|
--------------------|-------------------|--------------------|



-----------1--------|--------------------|-------------------|
--------------------|--3------------1----|--1----------------|
--2-----------------|--------------------|-------------------|
--------------------|--------------------|-------------------|
--------------------|--------------------|-------------------|
--------------------|--------------------|-------------------|



--------------------|-----------1--------|--------------------|
--L-----------------|--------------------|--1------------3----|
-----------0--------|--2-----------------|--------------------|
--------------------|--------------------|--------------------|
--------------------|--------------------|--------------------|
--------------------|--------------------|--------------------|



--0----------------|--L----------------|--L----------------||
-------------------|-------------------|-------------------||
-------------------|-------------------|-------------------||
-------------------|-------------------|-------------------||
-------------------|-------------------|-------------------||
-------------------|-------------------|-------------------||

 

 

Source : http://guithard.9online.fr/Tv.htm


If Slash's guitar could speak she'd say "I fuckin love you !"

 

Vous aimez Tabs4Acoustic.com ? Aidez-nous !

Devenez fan sur Facebook, suivez-nous sur Twitter, abonnez-vous sur Youtube, devenez supporter

 

t4a_userbar4.png

Partager ce message


Lien à poster
Partager sur d’autres sites

Veuillez vous connecter pour commenter

Vous pourrez laisser un commentaire après vous êtes connecté.



Connectez-vous maintenant

×
×
  • Créer...