Aller au contenu
Bloody fingers

[Errol Garner] Misty

Messages recommandés

Misty – Errol Garner


e|--6----------------------------8----8----6----8----6--|
B|-------8-----------------------6----6----6----6----5--|
G|------------7--------5----6----6----6----6----6----6--|
D|------------8----8-------------6----6----6----6----5--|
A|------------6-----------------------------------------|
E|------------------------------------------------------|

e|--3-----------------------------6----6----4----6---4--|
B|-------4----4-------------------4----4----4----4---3--|
G|------------5---------3----4----4----4----4----4---4--|
D|------------6----6--------------4----4----4----4---3--|
A|------------------------------------------------------|
E|------------------------------------------------------|

e|--3----3----4----6--------------3----4-------------------------3--|
B|--3-------------------4----6---------4----------3----4----6----3--|
G|--3-------------------5--------------5----5--------------------3--|
D|--1-------------------5--------------3-------------------------1--|
A|----------------------3-------------------------------------------|
E|------------------------------------------------------------------|


e|--6----------------------------8----8----6----8----6--|
B|-------8-----------------------6----6----6----6----5--|
G|------------7--------5----6----6----6----6----6----6--|
D|------------8----8-------------6----6----6----6----5--|
A|------------6-----------------------------------------|
E|------------------------------------------------------|

e|--3-----------------------------6----6----4----6---4--|
B|-------4----4-------------------4----4----4----4---3--|
G|------------5---------3----4----4----4----4----4---4--|
D|------------6----6--------------4----4----4----4---3--|
A|------------------------------------------------------|
E|------------------------------------------------------|

e|--3----3----4----6--------------3----4----------------------------|
B|--3-------------------4----6---------4----------3----4----6----4--|
G|--3-------------------5--------------5----5--------------------3--|
D|--1-------------------5--------------3-------------------------5--|
A|----------------------3----------------------------------------6--|
E|------------------------------------------------------------------|


e|-----------------6----8----9----8----6----9----9--|
B|-------6----8--------------6--------------8-------|
G|--8---------7--------------6--------------9-------|
D|------------8--------------6--------------8-------|
A|------------6-------------------------------------|
E|--------------------------------------------------|

e|--11---12---11---9------------------|
B|-------13-------------13---12---13--|
G|-------12-------------12---12---12--|
D|-------11-------------13---11---11--|
A|----------------------11------------|
E|------------------------------------|


e|-----------------6----8----10---8----10----13--|
B|-------6----9--------------8---------------13--|
G|--8------------------------9---------------12--|
D|---------------------------7---------------10--|
A|-----------------------------------------------|
E|-----------------------------------------------|

E|-10----8--------|
B|------------11--|
G|------------9---|
D|------------11--|
A|------------9---|
E|----------------|


Final
e|--6----------------------------8----8----6----8----6--|
B|-------8-----------------------6----6----6----6----5--|
G|------------7--------5----6----6----6----6----6----6--|
D|------------8----8-------------6----6----6----6----5--|
A|------------6-----------------------------------------|
E|------------------------------------------------------|

e|--3-----------------------------6----6----4----6---4--|
B|-------4----4-------------------4----4----4----4---3--|
G|------------5---------3----4----4----4----4----4---4--|
D|------------6----6--------------4----4----4----4---3--|
A|------------------------------------------------------|
E|------------------------------------------------------|

e|--3----3----4----6--------------3----4----4----4--|
B|--3-------------------4----6---------4----3----4--|
G|--3-------------------5--------------5----4----4--|
D|--1-------------------5--------------3----3----4--|
A|----------------------3---------------------------|
E|--------------------------------------------------|

e|--6----6----6----6--|
B|--4----4----7----8--|
G|--4----4----7----7--|
D|--4----4----6----8--|
A|------------6----6--|
E|--------------------|

Tablé par Bloody fingers

 

:guitare:

 

Béhèf


Big brother is watching you!

Partager ce message


Lien à poster
Partager sur d’autres sites

Veuillez vous connecter pour commenter

Vous pourrez laisser un commentaire après vous êtes connecté.



Connectez-vous maintenant

×
×
  • Créer...