Aller au contenu
  • 0
wacel

[Green Day] Basket case

Question

salut tout l monde comme le dit le titre je veux la tablature de basket case (Green day) & merci d'avance ^^

Partager ce message


Lien à poster
Partager sur d’autres sites

3 réponses à cette question

Messages recommandés

  • 0

Source : Ultimate guitare

 

[verse]
  E5          B5          C#5         G#5         A5          E5
1-|-----------|-----------|-----------|-----------|-----------|-----------|
2-|5-5-5-5-5-5|-----------|-----------|-----------|-----------|-----------|
3-|4-4-4-4-4-4|4-4-4-4-4-4|6-6-6-6-6-6|-----------|-----------|9-9-9-9-9-9|
4-|2-2-2-2-2-2|4-4-4-4-4-4|6-6-6-6-6-6|6-6-6-6-6-6|7-7-7-7-7-7|9-9-9-9-9-9|
5-|-----------|2-2-2-2-2-2|4-4-4-4-4-4|6-6-6-6-6-6|7-7-7-7-7-7|7-7-7-7-7-7|
6-|-----------|-----------|-----------|4-4-4-4-4-4|5-5-5-5-5-5|-----------|
  Do you...
[verse continued]
  B5          B5
1-|-----------|-----------| ||
2-|-----------|-----------| ||
3-|-----------|-----------|.||
4-|9-9-9-9-9-9|9-9-9-9-9-9|.|| <(repeat)
5-|9-9-9-9-9-9|9-9-9-9-9-9| ||
6-|7-7-7-7-7-7|7-7-7-7-7-7| ||  

[chorus]
  A5          B5          E5          E5
1-|-----------|-----------|-----------|-----------| ||
2-|-----------|-----------|-----------|-----------| ||
3-|-----------|-----------|9-9-9-9-9-9|9-9-9-9-9-9|.||
4-|7-7-7-7-7-7|9-9-9-9-9-9|9-9-9-9-9-9|9-9-9-9-9-9|.|| <(repeat)
5-|7-7-7-7-7-7|9-9-9-9-9-9|7-7-7-7-7-7|7-7-7-7-7-7| ||
6-|5-5-5-5-5-5|7-7-7-7-7-7|-----------|-----------| ||
  sometimes...
  A5          B5          E5    B5    C#5
1-|-----------|-----------|-----------|------------|
2-|-----------|-----------|-----------|------------|
3-|-----------|-----------|9-9-9------|6--6-6-6-6-6|
4-|7-7-7-7-7-7|9-9-9-9-9-9|9-9-9-9-9-9|6--6-6-6-6-6|
5-|7-7-7-7-7-7|9-9-9-9-9-9|7-7-7-9-9-9|4--4-4-4-4-4|
6-|5-5-5-5-5-5|7-7-7-7-7-7|------7-7-7|------------|
  It all..
  A5          B5          
1-|-----------|-----------|
2-|-----------|-----------|
3-|2--2--2--2-|4-4-4-4-4-4|
4-|2--2--2--2-|4-4-4-4-4-4|
5-|0--0--0--0-|2-2-2-2-2-2|
6-|-----------|-----------|
  Am I...
[bridge]
  E5    B5    C#5   B5
1-|-----------|-----------| ||
2-|5-5-5------|-----------| ||
3-|4-4-4-4-4-4/6-6-6-4-4-4|.||
4-|2-2-2-4-4-4/6-6-6-4-4-4|.|| <(repeat) 
5-|------2-2-2/4-4-4-2-2-2| ||repeat bridge again second time through
6-|-----------|-----------| ||  

^ repeat everything ^


  A5          B5          B5
1-|-----------|-----------|-----------|
2-|-----------|-----------|-----------|
3-|-----------|-----------|-----------|
4-|7-7-7-7-7-7|9-9-9-9-9-9|9-9-9-9-9--|
5-|7-7-7-7-7-7|9-9-9-9-9-9|9-9-9-9-9--|
6-|5-5-5-5-5-5|7-7-7-7-7-7|7-7-7-7-7--|
  Grasping...
repeat verse, then chorus, then go to outro:
 E   add11  Cm  C#m6              A5  E5  B5  B5
1-|0-0-0-0-0-0|-----------|       |-----------|-----------|
2-|0-0-0-0-0-0|-----------|       |-----------|-----------|
3-|1-1-1-2-2-1|-----------|4-|2-2-2-2-2-2|6-6-6-7-7-6|riff 2>|7---9---9-9|9-9-9-9-9-9|play 4 times
5-|2-2-2-2-2-2|4-4-4-4-4-4|       |7---7---9-9|9-9-9-9-9-9|
6-|0-0-0-0-0-0|-----------|       |5-------7-7|7-7-7-7-7-7| 

on fourth time play riff below instead of riff 2
  A5   E5  B5 A5   E5  B5
1-|-----------|-----------|
2-|-----------|-----------|
3-|-----9-----|-----9-----|
4-|7----9----9|7----9----9|
5-|7----7----9|7----7----9|
6-|5---------7|5---------7|


mini_599621signature.jpg

Partager ce message


Lien à poster
Partager sur d’autres sites
  • 0

PS: ... même si tu as écris le titre et l'artiste dans le sujet de ton message, je te rappelle que les chansons doivent être demandé en inscrivant la demande dans le sujet du message de cette façon: [Nom artiste] Titre chanson» ...merci de le faire à l'avenir! ;) (là je l'ai corrigé) :rolleyes:

Partager ce message


Lien à poster
Partager sur d’autres sites

Veuillez vous connecter pour commenter

Vous pourrez laisser un commentaire après vous êtes connecté.



Connectez-vous maintenant

×
×
  • Créer...