Aller au contenu
gratte-la-moi

[Green Day] Holiday

Messages recommandés

Bonjour !!!

 

 

Esce que quelqu'un aurait la tablature de Holiday jouer par Green day !!

Je trouve ce morceau fantastique et je n'arrive pas a trouver de tablature

 

mes moyens de chercher sur google ne serait pas les bons ?

 

 

Merci a vous ;)

Partager ce message


Lien à poster
Partager sur d’autres sites

Salut,

 

En faisant une recherche j'ai trouvé ça :

 

FIRST TAB FOR HOLIDAY!

Tuning:Standard

Intro --------------------------|repeat as much times when needed
e|------------------------------|
B|------------------------------|
G|--10-10---6-6-/-13-13--8-8--|
D|--10-10---6-6-/-13-13--8-8--|
A|---8--8---4-4-/-11-11--6-6--|
E|------------------------------|

Chours
e|---------------------------------------------------------------------------|
B|---------------------------------------------------------------------------|
G|---------6-6-6-6---------8-8-8-8--------------------------------------8----|
D|-3-3-3-3-6-6-6-6-6-6-6-6-8-8-8-8--x2-before u finish this add one more8----|
A|-3-3-3-3-4-4-4-4-6-6-6-6-6-6-6-6--------------------------------------6----|
E|-1-1-1-1---------4-4-4-4---------------------------------------------------|

Part after chourus
e|---------------------------------------------------------------------------|
B|---------------------------------------------------------------------------|
G|---------6---8-5-----------------------------------------------------------|
D|-3-3-6-6-6-8-8-5-----------------------------------------------------------|
A|-3-3-6-6-4-8-6-3-----------------------------------------------------------|
E|-1-1-4-4---6---------------------------------------------------------------|

This is basiclly the whole song except the bridge.Sill figuring that part out but yea.
if have any comments email or something

| /  slide up
|   slide down
| h  hammer-on
| p  pull-off
| ~  vibrato
| +  harmonic
| x  Mute note
==============================================================================

 

Sur ce site : http://www.ultimate-guitar.com

 

Voilà.


foweargivrbanierenm-2.jpg

Partager ce message


Lien à poster
Partager sur d’autres sites

Voilà se que j'ai trouvé

 

SONG:-HOLIDAY (SOLO)
ARTIST:-GREEN DAY
ALBUM:-AMERICAN IDIOT
YEAR:-2004
TABBED BY:-LIAM THOMPSON

e--------------------------------8---8----|
b-----------8-9--------8------------------|
g--10-10-10-----8-6-5----9-5--10--10------|
d-----------------------------------------|
a-----------------------------------------|
E-----------------------------------------|

e-------------------------------------------|
b-----------8-9-----------------------------|
g--10-10-10-----8-6-5-5/12-12-12-12-12-12-12|
d-------------------------------------------|
a-------------------------------------------|
E-------------------------------------------|

e--------------------12-12-12-12-12-12-13~~~~~~~~|
b-13-13-13-13-13-13------------------------------|
g------------------------------------------------|
d------------------------------------------------|
a------------------------------------------------|
E------------------------------------------------|

 

Source : http://www.fretplay.com/

 

ça a pas l'air trop dur ^^


foweargivrbanierenm-2.jpg

Partager ce message


Lien à poster
Partager sur d’autres sites

Effectivement, c'est super kiffant comme morceau, et le solo est pas dur pou un sou ^^


sanstitre2dddtz3.png

 

Le mal triomphe par l'inaction des gens de biens

Partager ce message


Lien à poster
Partager sur d’autres sites

Veuillez vous connecter pour commenter

Vous pourrez laisser un commentaire après vous êtes connecté.



Connectez-vous maintenant

×
×
  • Créer...