Aller au contenu

TheQuent

Guitariste
  • Compteur de contenus

    1
  • Inscription

  • Dernière visite

Messages posté(e)s par TheQuent

  1. Salut tout le monde.

    Pourriez vous m'aider à trouver la rythmique de ce morceau

    J'ai les accords Em D G Cmaj7 (3x) Em D C Em G D Em D Am Bm (Em? D C# C D).

    Mais j'arrive pas trouver la rythmique fait comme dans les rythmiques de Tabs4Acoustic du type BhbBbBh ect...

    Merci beaucoup

     

    Intro:
    e------------------------------------------------------------------------
    B------------------------------------------------------------------------
    G----10-10----10--10-10-12-13-12-10------10-10----10--10-10--10-10-8-10--
    D-10-------10-------------------------10-------10------------------------
    A------------------------------------------------------------------------
    E------------------------------------------------------------------------
    play this twice
    then, the 1st verse:
    e----12-12----12--12-12-14-15-14-12------12-12----12--12-12--12-12-10-12--
    B-12-------12-------------------------12-------12-------------------------
    G-------------------------------------------------------------------------
    D-------------------------------------------------------------------------
    A-------------------------------------------------------------------------
    E-------------------------------------------------------------------------
    play this tab 4 times, with these lyrics:
    "Et ma télé est allumée Emma t' es là
    et dire que ma journèe est à peine entamée
    Emma tu m' as déjà scotché au canapé
    Emma t' es vraiment 10 fois plus belle que Tara"
    Bridge:
    e-------------------------------------------------------------
    B----------12-12-15-17-15-12--12-15-13-12-10--10-12-10-8------
    G----10--12----------------------------------------------7--9-
    D-10----------------------------------------------------------
    A-------------------------------------------------------------
    E-------------------------------------------------------------
    e-------------------------------------------------------------
    B----10--12-12-15-17-15-12--12-15-13-12-10--10-12-10-8--------
    G-12---------------------------------------------------7--9---
    D-------------------------------------------------------------
    A-------------------------------------------------------------
    E-------------------------------------------------------------
    2nd verse: (play with the tab)
    "Emma comment fais-tu pour être aussi sûre de toi?
    Tes coups de pied m' ont quelque peu émasculé
    Emma je t' en pris, rend moi ma virilité
    Emma, t' es vraiment 100 fois plus belle que Tara"
    Bridge ( play the tab)
    3rd verse: (play the tab)
    "Emma t' es belle, et ma copine elle t' aime pas
    Emma t' es bonne et ma pile va bientôt claquer
    Emma t' es froide comme le carrelage de mes WC
    Emma t' es vraiment 100 fois plus belle que Tara"
    "Emma" (x4) ... stop playing while singing this.
    
    Then:......DISTORTION till the end!!!
     Em   D    G	 Cmaj7
    
    "Emma y-a-y-a Emma y-a-é	  play this twice  
    Emma y-a-y-a Emma y-a-a"
    4th verse:
       Em	  D	  G	  Cmaj7
    "Et ma télé va exploser, Emma tais toi
    Et dire que pour toi j' aurai gâché ma santé
    Emma t' as même pas réussi à me soulager
    Emma t' es vraiment périmée rhabilles toi!"
    
     Em   D   G   Cmaj7
    
    "Emma y-a-y-a Emma y-a-é	  play this twice  
    Emma y-a-y-a Emma y-a-a"
    
    
    "Emma y-a-y-a Emma y-a-é	  (x2) play with the bridge part 
    Emma y-a-y-a Emma y-a-a"
    
     Em    D    G    Cmaj7
    
    "Emma y-a-y-a Emma y-a-é	  sing this once, without playing guitar  
    Emma y-a-y-a Emma y-a-a"	  then play the chords while singing this twice
    
    

     

    source ABCdestabs.com

×
×
  • Créer...