Aller au contenu
Anduril

[Indochine] Alice et June

Messages recommandés

Voila Alice et June du groupe indochine

 

 

:!: chansons très très dur :p :!:

 

 

 

(humour, parfaite pour les débutants !!!)

 

 

 

 

riff 1

 

 

------------------------------------------------------------------

-------------------------------------------------------------------

--3--3--3--3--2--2--2--2--7--7--7--7--7--7--7--7------------

-------------------------------------------------------------------

---------------------------------------------------------------------

--------------------------------------------------------------------

 

 

 

riff 2 (qui arive sur l'intro)

 

 

---------1-----------1-----------------------------------------------

------------------------------------6-----------6--------------------

--3--3-----3--2--2-----2--7--7-----7--7--7-----7-----------------

--------------------------------------------------------------------

---------------------------------------------------------------------

-----------------------------------------------------------------------

 

 

puis accords :

 

688xxx

331xxx

775xxx

775xxx

 

 

pour chaque accord je le joue trois fois et j'étoufe

 

 

 

solo du refrain 1 et du solo( :D) )

 

 

-------------------------------------------------------

-------------------------------------------------------

--3--2-----3--2-----3--2--0--2--0--2--------------- x2

---------0--------0-----------------------------------

-----------------------------------------------------

------------------------------------------------------

 

 

 

puis juste avant le pont

 

 

------------------------------------------------------------------------

--3--3--1--3--1--------------------------------------------------------

-------------------2--2--2--0-----------0--3--2------------------------

--------------------------------3--3--3-----------------------------------

----------------------------------------------------------------------------

-----------------------------------------------------------------------------

 

 

 

 

 

 

 

voila simple mais efficace amusez vous bien !

Partager ce message


Lien à poster
Partager sur d’autres sites

Merci Anduril mais pour la rythmique tu joue fois chaque accord....mais dans quel sens :boing:


zaitchevmx5ld4.jpg

Partager ce message


Lien à poster
Partager sur d’autres sites

je fais : bas haut bas et la j'étoufe les accords

 

 

1 fois par accord

Partager ce message


Lien à poster
Partager sur d’autres sites
:p:x: RAAAAA merci Anduril :love: oui d'autre please :top:

C'est justement la possibilité De réaliser un Rêve Qui rend la vie intéressente....

Partager ce message


Lien à poster
Partager sur d’autres sites

le week end j'ai plus de temps pour en mettre

 

 

tu as dut voir qu'il y a déjà adora et gang bang et l'aventurier ;)

Partager ce message


Lien à poster
Partager sur d’autres sites

ouiiiiii merciiiiii :top::D:love:


C'est justement la possibilité De réaliser un Rêve Qui rend la vie intéressente....

Partager ce message


Lien à poster
Partager sur d’autres sites

;)

 

de rien

 

 

et content de voir que sa fais des heureux surtout !!

Partager ce message


Lien à poster
Partager sur d’autres sites

Veuillez vous connecter pour commenter

Vous pourrez laisser un commentaire après vous êtes connecté.



Connectez-vous maintenant

×
×
  • Créer...