Aller au contenu

[Indochine] L'aventurier


Messages recommandés

  • 2 weeks later...
  • Réponses 67
  • Created
  • Dernière réponse

Top Posters In This Topic

si j'peux me permettre, pour ceux qui galèrent à la jouer comme ça, moi j'ai appris d'une autre manière, et c'esr bien plus facile (mais oui je sais, c'est pas la version originale, mais c'est moins dur :D) )

 

-------------0---3-----0----------------|--------------0---3-----0------0------0--|
----1----3-----------------3---1--------|----1---3------------------3------3------|
-----------------------------------2----|----------------------------------------|

Lien à poster
Partager sur d’autres sites
  • 1 year later...
  • 2 weeks later...
  • 9 months later...

Euh, j'ai envie de dire qu'il faudrait modifier la 1ère tab à savoir :

 

-----------2---------------------2---------------------

-----2--4----4--2-------2--4-----4--2--4--2--4-----

--1----------------4--1-------------------------------

-------------------------------------------------------

-------------------------------------------------------

------------------------------------------------------

 

 

 

et de rajouter une note pour donner :

 

 

-----------2-------------------------2---------------------

-----2--4----4--2-----------2--4-----4--2--4--2--4-----

--1----------------4--1--4------------------------------

---------------------------------------------------------

---------------------------------------------------------

--------------------------------------------------------

Modifié par homme-a-tout-faire
Lien à poster
Partager sur d’autres sites

Veuillez vous connecter pour commenter

Vous pourrez laisser un commentaire après vous êtes connecté.



Connectez-vous maintenant
×
×
  • Créer...