Aller au contenu

[Indochine] Paradize


Messages recommandés

Intro
Gtr. I
E|-------------------------------------------------------------|
B|-------------------------------------------------------------|
G|---5---3-5---3-5---3-5-3-5-3-----5---3-5---3-5---3-5-3-5-3---|
D|-----5-----5-----5-----------5-----5-----5-----5-----------5-|
A|-3-----------------------------3-----------------------------|
E|-------------------------------------------------------------|
_____

Gtr. I
E|-------------------------------------------------------------|
B|-------------------------------------------------------------|
G|---5---3-5---3-5---3-5-3-5-3-----5---3-5---3-5---3-5-3-5-3---|
D|-----5-----5-----5-----------5-----5-----5-----5-----------5-|
A|-3-----------------------------3-----------------------------|
E|-------------------------------------------------------------|

E|-------------------------------------------------------------|
B|-------------------------------------------------------------|
G|-------------------------------------------------------------|
D|-10----------------------------10/5--------------------------|
A|-x-----------------------------x--x--------------------------|
E|-8-----------------------------8--3--------------------------|
_____

Gtr. I
E|-------------------------------------------------------------|
B|-------------------------------------------------------------|
G|---5---3-5---3-5---3-5-3-5-3-----5---3-5---3-5---3-5-3-5-3---|
D|-----5-----5-----5-----------5-----5-----5-----5-----------5-|
A|-3-----------------------------3-----------------------------|
E|-------------------------------------------------------------|

E|-------------------------------------------------------------|
B|-------------------------------------------------------------|
G|---5---3-5---3-5---3-5-3-5-3-----5---3-5---3-5---3-5-3-5-3---|
D|-5---5-----5-----5-----------5-5---5-----5-----5-----------5-|
A|-------------------------------------------------------------|
E|-------------------------------------------------------------|
__________

Couplet
Gtr. I
E|-------------------------------------------------------------|
B|-------------------------------------------------------------|
G|---5---3-5---3-5---3-5-3-5-3-----5---3-5---3-5---3-5-3-5-3---|
D|-----5-----5-----5-----------5-----5-----5-----5-----------5-|
A|-3-----------------------------3-----------------------------|
E|-------------------------------------------------------------|

Gtr. II
E|-------------------------------------------------------------|
B|-------------------------------------------------------------|
G|-5-3-----------3-5-3-----------3-5-3-----------3-5-3---------|
D|-----5-3---3-5-------5-3---3-5-------5-3---3-5-------5-3---3-|
A|---------6---------------6---------------6---------------6---|
E|-------------------------------------------------------------|
_____

Gtr. I x2
E|-------------------------------------------------------------|
B|-------------------------------------------------------------|
G|-------------------------------------------------------------|
D|-5-3-------------------5-3-----------------------------------|
A|-----6-3-3-3-6-6-3-3-3-----6-3-3-3-6-6-3-3-3-----------------|
E|-------------------------------------------------------------|

Gtr. II x2
E|-------------------------------------------------------------|
B|-------------------------------------------------------------|
G|-5-3-----------3-5-3-----------3-5-3-----------3-5-3---------|
D|-----5-3---3-5-------5-3---3-5-------5-3---3-5-------5-3---3-|
A|---------6---------------6---------------6---------------6---|
E|-------------------------------------------------------------|
__________

Interlude
Gtr. I
E|-----|
B|-----|
G|-----|
D|-6-5-|
A|-----|
E|-----|
_____

Gtr. I & Gtr. II
E|-----------------------------------|
B|-----------------------------------|
G|-5-5-8-8-5-5-8-8-5-5-8-8-5-5-8-8-8-|
D|-5-5-8-8-5-5-8-8-5-5-8-8-5-5-8-8-8-|
A|-3-3-6-6-3-3-6-6-3-3-6-6-3-3-6-6-6-|
E|-----------------------------------|
_____

Gtr. I
E|-----|
B|-----|
G|-----|
D|-6-5-|
A|-----|
E|-----|
_____

Gtr. I & Gtr. II
E|-----------------------------------|
B|-----------------------------------|
G|-5-5-8-8-5-5-8-8-5-5-8-8-5-5-8-8-8-|
D|-5-5-8-8-5-5-8-8-5-5-8-8-5-5-8-8-8-|
A|-3-3-6-6-3-3-6-6-3-3-6-6-3-3-6-6-6-|
E|-----------------------------------|
__________

Gtr. I x5
E|-------------------------------------------------------------|
B|-------------------------------------------------------------|
G|-------------------------------------------------------------|
D|-5-3-------------------5-3-----------------------------------|
A|-----6-3-3-3-6-6-3-3-3-----6-3-3-3-6-6-3-3-3-----------------|
E|-------------------------------------------------------------|

Gtr. II x5
E|-------------------------------------------------------------|
B|-------------------------------------------------------------|
G|-5-3-----------3-5-3-----------3-5-3-----------3-5-3---------|
D|-----5-3---3-5-------5-3---3-5-------5-3---3-5-------5-3---3-|
A|---------6---------------6---------------6---------------6---|
E|-------------------------------------------------------------|
__________

Interlude
Gtr. I
E|-----|
B|-----|
G|-----|
D|-6-5-|
A|-----|
E|-----|
_____

Gtr. I & Gtr. II
E|-----------------------------------|
B|-----------------------------------|
G|-5-5-8-8-5-5-8-8-5-5-8-8-5-5-8-8-8-|
D|-5-5-8-8-5-5-8-8-5-5-8-8-5-5-8-8-8-|
A|-3-3-6-6-3-3-6-6-3-3-6-6-3-3-6-6-6-|
E|-----------------------------------|
_____

Gtr. I
E|-----|
B|-----|
G|-----|
D|-6-5-|
A|-----|
E|-----|
_____

Gtr. I & Gtr. II
E|-----------------------------------|
B|-----------------------------------|
G|-5-5-8-8-5-5-8-8-5-5-8-8-5-5-8-8-8-|
D|-5-5-8-8-5-5-8-8-5-5-8-8-5-5-8-8-8-|
A|-3-3-6-6-3-3-6-6-3-3-6-6-3-3-6-6-6-|
E|-----------------------------------|
__________

Refrain
Gtr. I & II x2
E|---------------------------------------------------------------------------------|
B|---------------------------------------------------------------------------------|
G|-8-8-8-8-8-8-8-8-----------------5-5-5-5/8-8-8-8-8-8-8-8-8-8-8-8-5-5-5-5-5-5-5-5-|
D|-8-8-8-8-8-8-8-8-8-8-8-8-8-8-8-8-5-5-5-5-8-8-8-8-8-8-8-8-8-8-8-8-5-5-5-5-5-5-5-5-|
A|-6-6-6-6-6-6-6-6-8-8-8-8-8-8-8-8-3-3-3-3-6-6-6-6-6-6-6-6-6-6-6-6-3-3-3-3-3-3-3-3-|
E|-----------------6-6-6-6-6-6-6-6-------------------------------------------------|
__________

Couplet
Gtr. I x4
E|-------------------------------------------------------------|
B|-------------------------------------------------------------|
G|-------------------------------------------------------------|
D|-5-3-------------------5-3-----------------------------------|
A|-----6-3-3-3-6-6-3-3-3-----6-3-3-3-6-6-3-3-3-----------------|
E|-------------------------------------------------------------|

Gtr. II x4
E|-------------------------------------------------------------|
B|-------------------------------------------------------------|
G|-5-3-----------3-5-3-----------3-5-3-----------3-5-3---------|
D|-----5-3---3-5-------5-3---3-5-------5-3---3-5-------5-3---3-|
A|---------6---------------6---------------6---------------6---|
E|-------------------------------------------------------------|
__________

Interlude
Gtr. I
E|-----|
B|-----|
G|-----|
D|-6-5-|
A|-----|
E|-----|
_____

Gtr. I & Gtr. II
E|-----------------------------------|
B|-----------------------------------|
G|-5-5-8-8-5-5-8-8-5-5-8-8-5-5-8-8-8-|
D|-5-5-8-8-5-5-8-8-5-5-8-8-5-5-8-8-8-|
A|-3-3-6-6-3-3-6-6-3-3-6-6-3-3-6-6-6-|
E|-----------------------------------|
_____

Gtr. I
E|-----|
B|-----|
G|-----|
D|-6-5-|
A|-----|
E|-----|
_____

Gtr. I & Gtr. II
E|-----------------------------------|
B|-----------------------------------|
G|-5-5-8-8-5-5-8-8-5-5-8-8-5-5-8-8-8-|
D|-5-5-8-8-5-5-8-8-5-5-8-8-5-5-8-8-8-|
A|-3-3-6-6-3-3-6-6-3-3-6-6-3-3-6-6-6-|
E|-----------------------------------|
__________

Refrain
Gtr. I & II 
E|---------------------------------------------------------------------------------|
B|---------------------------------------------------------------------------------|
G|-8-8-8-8-8-8-8-8-----------------5-5-5-5/8-8-8-8-8-8-8-8-8-8-8-8-5-5-5-5-5-5-5-5-|
D|-8-8-8-8-8-8-8-8-8-8-8-8-8-8-8-8-5-5-5-5-8-8-8-8-8-8-8-8-8-8-8-8-5-5-5-5-5-5-5-5-|
A|-6-6-6-6-6-6-6-6-8-8-8-8-8-8-8-8-3-3-3-3-6-6-6-6-6-6-6-6-6-6-6-6-3-3-3-3-3-3-3-3-|
E|-----------------6-6-6-6-6-6-6-6-------------------------------------------------|
_____

Gtr. I
E|-----------------------------------------------6-6-------------------------------|
B|-----------------------8---------------8-8-8-8-----8-6---------------------------|
G|-8-8-8~7~--------8-8-8--~8~---------------------------~8~------------------------|
D|---------------------------------------------------------------------------------|
A|---------------------------------------------------------------------------------|
E|---------------------------------------------------------------------------------|

Gtr. II 
E|---------------------------------------------------------------------------------|
B|---------------------------------------------------------------------------------|
G|-8-8-8-8-8-8-8-8-----------------5-5-5-5/8-8-8-8-8-8-8-8-8-8-8-8-5-5-5-5-5-5-5-5-|
D|-8-8-8-8-8-8-8-8-8-8-8-8-8-8-8-8-5-5-5-5-8-8-8-8-8-8-8-8-8-8-8-8-5-5-5-5-5-5-5-5-|
A|-6-6-6-6-6-6-6-6-8-8-8-8-8-8-8-8-3-3-3-3-6-6-6-6-6-6-6-6-6-6-6-6-3-3-3-3-3-3-3-3-|
E|-----------------6-6-6-6-6-6-6-6-------------------------------------------------|
_____

Gtr. I
E|--~6~6~-------~6~6~-------------~6~6~-------~6~6~-------~6~6~--------------------|
B|~8~---~8~9~9~8~---~8~9~9~8~8~9~8~---~8~9~9~8~---~8~9~9~8~---~8~9~9~8~8~8~9~8~9~9~|
G|---------------------------------------------------------------------------------|
D|---------------------------------------------------------------------------------|
A|---------------------------------------------------------------------------------|
E|---------------------------------------------------------------------------------|

Gtr. I & II
E|---------------------------------------------------------------------------------|
B|---------------------------------------------------------------------------------|
G|-8-8-8-8-8-8-8-8-----------------5-5-5-5/8-8-8-8-8-8-8-8-8-8-8-8-5-5-5-5-5-5-5-5-|
D|-8-8-8-8-8-8-8-8-8-8-8-8-8-8-8-8-5-5-5-5-8-8-8-8-8-8-8-8-8-8-8-8-5-5-5-5-5-5-5-5-|
A|-6-6-6-6-6-6-6-6-8-8-8-8-8-8-8-8-3-3-3-3-6-6-6-6-6-6-6-6-6-6-6-6-3-3-3-3-3-3-3-3-|
E|-----------------6-6-6-6-6-6-6-6-------------------------------------------------|
__________

Outro
Gtr. I & Gtr. II
E|-----------------------------------|
B|-----------------------------------|
G|-5-5-8-8-5-5-8-8-5-5-8-8-5-5-8-8-8-|
D|-5-5-8-8-5-5-8-8-5-5-8-8-5-5-8-8-8-|
A|-3-3-6-6-3-3-6-6-3-3-6-6-3-3-6-6-6-|
E|-----------------------------------|

Lien à poster
Partager sur d’autres sites

je ne connaissais pas cette tab donc je vais l'essayer tient

 

 

j'ai eut su jouer cette chanson mais je m'en souviens plus vraiment je l'avais vite fait bosser pour apprendre a enchainer les power chords, donc je jouait principalement le refrain et le thème

 

pour le refrain il me semble que je jouais en accord de puissance : D A Bm G

 

et le thème je le jouais avec Bm et D uniquement

 

merci babzoo je vais essayer la tienne ;)

 

 

ps : et bon gout musicaux :p

Lien à poster
Partager sur d’autres sites

je viens de me rendre compte qu'en fait j'en est une tab, par contre je suis désolé mais c'est en gp5

 

 

http://www.mediafire.com/?9vdzlbnm5vm

 

 

je suis désolé pour ceux qui n'ont pas guitar pro

elle a l'air pas trop mal cette tab, par contre faut pas se fier aux noms des pistes, parce que si on regarde boris joue pas pendant la moitié du morceau O_o

et pareil pour oli :boing:

 

enfin bref elle a le mérite de bien sonner

 

 

babzoo celle que tu as mise en fait c'est le 3.6.3, pas la version studio, c'est toujours bon à savoir ;)

 

en espérant te rendre service ;)

Lien à poster
Partager sur d’autres sites

Veuillez vous connecter pour commenter

Vous pourrez laisser un commentaire après vous êtes connecté.



Connectez-vous maintenant
×
×
  • Créer...