Aller au contenu
Anduril

[Indochine] Tes yeux noirs

Messages recommandés

une chanson d'indo que j'adore de l'album "3"

 

 


Intro : A  F#m  E  Bm (x2)

A              F#m               E        Bm
Viens-là, viens avec moi, ne pars pas sans moi
A              F#m              E        Bm
Oh ! Oh ! viens reste-là ne pars pas sans moi
A                      F#m              E        Bm
Oh ! Oh ! tu prends tes vêtements tu les mets sur toi
A                           F#m       E    Bm
Oh ! Oh ! cette nuit dans ce lit tu es si jolie...

D  F#m  C#m  E

    D                       F#m
Mais qu'est-ce qui brille sur nos regards
C#m              E
ce sont tes yeux noirs
  D                 F#m
un corps musclé des cheveux courts
  C#m                 E
tu ressembles à un garçon
     D                  F#m
et je sens ta peau même sans lumière
   C#m                 E
les serpents sont légendaires

A      F#m  Bm     E
Où vas-tu les yeux noirs
A       F#m  Bm        E
tu t'en vas vers nulle part

Allez ! Viens-là, viens avec moi ne pars pas sans moi
Eh ! viens-là reste-là ne pars plus sans moi
Oh ! Oh ! tu prends tes vêtements tu les mets sur toi
Eh ! cette nuit dans ce lit tu es si jolie

On se reverra tous les jours dès notre retour
Prends tes vêtements tu as froid
et mets-les sur toi
mais tu cries dans l'eau même en hiver
et brillent tes yeux noirs

Où vas-tu quand tu pars
dans la rue vers nulle part

Allez ! Viens-là, viens avec moi ne pars pas sans moi
Allez viens reste-là ne pars plus sans moi
Oh ! Oh ! tu prends tes vêtements tu les mets sur toi
Eh ! cette nuit dans ce lit tu es si jolie...

Partager ce message


Lien à poster
Partager sur d’autres sites

Je rajoute ceci, puis l'intro que j'ai tablé pour Whynot1996:

 

Tes yeux noirs - indochine
Il s'agit du live de 97,indochine sait faire revivre ses anciens morceaux en rajoutant le petit plus qui fait la différence et ce morceau en est la preuve.
						  1.2.3.   4.
						  ______  _______
						 |	   |
e|----1---------1---------1-------:|------2--|
b|--2----2-0--2----2-0--2---------:|------3--|
g|--------------------------------:|------2--|
d|---------------------------2-4--:|-2-4--4--|
a|--------------------------------:|------2--|
e|--------------------------------:|---------|
   A		  F#m	    E		 Bm7				  
e|--------------------------0-------------:|	 
b|--------2---------2-------0---------3---:| x3   
g|------2---------------------1---------2-:|	  
d|----2-----------4-------------2---------:|	  
a|--0-----------4---------2---------2-----:|	  
e|------------2---------0-----------------:|	 
   A		  F#m		 E		  Bm7	  
e|-----------------------------0-------------|
b|--------3-2--------3-2-------0---------3---|pour la 4ème
g|----2----------2---------------1---------2-|    fois
d|------2----------4---------------2---------|
a|--0------------------------2---------2-----|
e|-------------2-----------0-----------------|
  A			  F#m			   E		    Bm7
Allez,viens-là viens avec moi ne pars pas sans moi
A			 F#m	    E			 Bm7
Viens-là reste-là ne pars plus sans moi
A			 F#m			   E		   Bm7		 
Tu prends tes vEtements tu les mets sur toi
A			   F#m		    E	    Bm7
Cette nuit dans ce lit t'étais si jolie
e|---------------------------------------------------------------:|
b|3-3---3-3---3---2-2---2-2---2-0-2-2-0-2-2-0-2-----------------2:|
g|----2-----2---2-----2-----2-------------------2-4-4-2-4-4-2-4--:|X4
d|---------------------------------------------------------------:|
a|---------------------------------------------------------------:|
e|---------------------------------------------------------------:|
Mais qu'est-ce qui brille sur nos regards ce sont tes yeux noirs
Un corps musclé des cheveux courts tu ressembles à un garçon
Et je sens ta peau meme sans lumière les serpents sont légendaires
F#m	   A	    E
Où vas-tu les yeux noirs	  (Ici les accords sont joués normalement)
F#m		 A		  E
Tu t'en vas vers nulle part 
   A		  F#m	    E		 Bm7					 
e|--------------------------0-------------:|	 
b|--------2---------2-------0---------3---:| x3   
g|------2---------------------1---------2-:|	 
d|----2-----------4-------------2---------:|	  
a|--0-----------4---------2---------2-----:|	 
e|------------2---------0-----------------:|	 
    A		  F#m	    E		 Bm7				  
e|-----------------------------0-------------|
b|--------3-2--------3-2-------0---------3---|pour la 4ème
g|----2----------2---------------1---------2-|    fois
d|------2----------4---------------2---------|
a|--0------------------------2---------2-----|
e|-------------2-----------0-----------------|
   A			  F#m			  E		    Bm7
Allez!,viens là viens avec moi ne pars plus sans moi
A			  F#m	   E		    Bm7
Viens-là reste-là ne pars pas sans moi
A			  F#m			 E		    Bm7
Tu prends tes vEtements tu les mets sur toi
A			   F#m		    E	    Bm7
Cette nuit dans ce lit t'étais si jolie
e|---------------------------------------------------------------:|
b|3-3---3-3---3---2-2---2-2---2-0-2-2-0-2-2-0-2-----------------2:|
g|----2-----2---2-----2-----2-------------------2-4-4-2-4-4-2-4--:|x4
d|---------------------------------------------------------------:|
a|---------------------------------------------------------------:|
e|---------------------------------------------------------------:|
Et on se reverra tous les jours dès notre retour
Prends tes vetements et tu as froid et mets les sur toi
Mais tu cries dans l'eau meme en hiver et brillent tes yeux noirs
F#m	   A	    E
Où vas-tu quand tu pars
F#m		 A		  E
Dans la rue vers nulle part
 A		  F#m	    E		 Bm7				   
e|--------------------------0-------------:|	  
b|--------2---------2-------0---------3---:| x3   
g|------2---------------------1---------2-:|	 
d|----2-----------4-------------2---------:|	  
a|--0-----------4---------2---------2-----:|	 
e|------------2---------0-----------------:|	  

   A		  F#m		 E		  Bm7	  
e|-----------------------------0-------------|
b|--------3-2--------3-2-------0---------3---|pour la 4ème
g|----2----------2---------------1---------2-|    fois
d|------2----------4---------------2---------|
a|--0------------------------2---------2-----|
e|-------------2-----------0-----------------|
   A			 F#m			  E		    Bm7
Allez,viens-là viens avec moi ne pars pas sans moi
A			  F#m	    E		    Bm7
Viens-là reste-là ne pars plus sans moi
A			 F#m			  E		    Bm7
Tu prends tes vetements tu les mets sur toi
A			   F#m		    E	   Bm7
Cette nuit dans ce lit t'étais si jolie
e|--7-9-75-------9-10-12-75-------4-5-|
b|----------5-5-7-------------5-5-7-----|
g|--------------------------------------| (normalement joué
d|--------------------------------------|  au saxophone)
a|--------------------------------------|
e|--------------------------------------|

					 1.2.3.4.5.   6.
						  _____  ___________
						 |	  |
e|----1---------1---------1-------:|-------2--0-|
b|--2----2-0--2----2-0--2---------:|-------3--2-|
g|--------------------------------:|-------2--2-|
d|---------------------------2-4--:|--2-4--4--2-|
a|--------------------------------:|-------2--0-|
e|--------------------------------:|------------|

source ABCTABS

Intro _ Tes yeux noirs.gp5


Un correcteur d’orthographe : Outils,Options,Avancé,cochez : vérifiez l'orthographe lors de la frappe.

Si vous faîtes une faute d'orthographe, le mot sera souligné en rouge, un clic droit sur ce mot vous donnera le bon mot orthographié.

 

Un super luthier à Arras: http://guitartetsens...therie#!atelier

 

Envie de gratter avec moi? Tu es du 62/59? N'hésitez pas à m'envoyer un MP

 

Cherche guitariste débutant / batteur / bassiste / clavieriste pour formation groupe Cover à dIRE sTRAITS

 

http://riki-le-plect...et/?lang=fr De magnifiques médiators

Partager ce message


Lien à poster
Partager sur d’autres sites

Veuillez vous connecter pour commenter

Vous pourrez laisser un commentaire après vous êtes connecté.



Connectez-vous maintenant

×
×
  • Créer...