Aller au contenu

[Inspecteur gadget] Generique


Messages recommandés

(1)			      (2)
---------------------		---------------
---------------------		---------------
---------------------		-----------2-1-
-------0-2---1---0---		-------0-2-----
-0-2-3-----3---2---3-		-0-2-3---------
---------------------		---------------


(1bis)			      (3)
---------------------		---------------
---------------------		---------------
---------------------		-------------2-
-------0-2---1---0---		-----------2-2-
-0-2-3-----3---2---3-		-0---------2-0-
---------------------		---4-3-2-1-0---	

Lien à poster
Partager sur d’autres sites
  • 3 weeks later...

J'ai trouvé la version intégrale en une guitare :D) :

 

 

 


E||----------------------------|----------------------------------|
B||----------------------------|----------------------------------|
G||--2-1----------0------------|--2-1-----0-----------------------|
D||------2----------4-1--------|------2-----4-1---3-2-----2-0-----|
A||----------------------------|----------------------2-3-----3-2-|
E||----------------------------|----------------------------------|



|-----------0-----------------|----------0--5--4~---------||
|-----0-1-3----1--4-----3--1--|----0-1-3------------------||
|*--2----------------4--------|--2-----------------------*||
|*------2------2-----4-----2--|------2-------------------*||
|---0-------------2-----------|--0----------0--1~---------||
|-----------0-----------0-----|----------0----------------||



--5-4-3-2-1----L----L-----|--------------------------|
--5-4-3-2-1----L----L--5--|--1-----------------------|
-----------------------5--|--2-----------------------|
--------------------------|--2--2-----2-----2-----2--|
--------------------------|--0-----------0-----------|
--------------------------|--------0-----------0-----|



|-----------0-----------------|----------0--5--4~---------||
|-----0-1-3----1--4-----3--1--|----0-1-3------------------||
|*--2----------------4--------|--2-----------------------*||
|*------2------2-----4-----2--|------2-------------------*||
|---0-------------2-----------|--0----------0--1~---------||
|-----------0-----------0-----|----------0----------------||



--5-4-3-2-1----L----L-----|-------------------|-----||
--5-4-3-2-1----L----L--5--|--1----------------|-----||
-----------------------5--|--2----------------|-----||
--------------------------|--2----------------|-----||
--------------------------|--0----------------|-----||
--------------------------|-------------------|-----||

 

j'adore

:D)

Lien à poster
Partager sur d’autres sites
  • 1 year later...
  • 3 months later...

Veuillez vous connecter pour commenter

Vous pourrez laisser un commentaire après vous êtes connecté.



Connectez-vous maintenant
×
×
  • Créer...