Aller au contenu

[Juda Priest] Breaking the law


Messages recommandés

  • 3 weeks later...

http://youtube.com/watch?v=OYn5hxeFt10

 

 

Voila j'ai trouvé ca sur tTabs, j'éspère que ca te convient ^^

 

RIFF 1
e|----------------------------|----------------------------|
B|----------------------------|----------------------------|
G|*---------------------------|---------------------------*|
D|*---------------------------|---------------------------*|
A|---0--2--3--0-2--3--0-2--3--|--------0-------0----3--2---|
E|----------------------------|--1--3-----1-3-----3--------|


VERSE I
e|------------------------|-----------------------|
B|------------------------|-----------------------|
G|*--2--------------------|--5-----------2-------*|
D|*--2--------------------|--5-----5-----2-------*|
A|---0--------------------|--3-----5-----0--------|
E|------------------------|--------3--------------|
  There I was completely wasting, out of work and down
  all inside it's so frustrating as I drift from town to town

e|-----------------------|----------------------|
B|-----------------------|----------------------|
G|-----------------------|--5-------------------|
D|--3--------------------|--5-------------------|
A|--3--------------------|--3-------------------|
E|--1--------------------|----------------------|
  feel as though nobody cares if I live or die

e|-----------------------|----------------------|
B|-----------------------|----------------------|
G|-----------------------|----------------------|
D|--3--------------------|--2-------------------|
A|--3--------------------|--2-------------------|
E|--1--------------------|--0-------------------|
  so I might as well begin to put some action in my life


CHORUS
e|---------------------|--------------------|---------------------|
B|---------------------|---10---------------|----------------10---|
G|*-------------------*|*---9---------------|-----------------9--*|
D|*-------------------*|*-------------------|--------------------*|
A|---0-0-0-0-0-0-0-0---|-------0-0-0-0-0-0--|--0-0-0-0-0-0-0------|
E|---------------------|--------------------|---------------------|
  Breaking the law       Breaking the law    Breaking the law

e|-------------------|--------------------|
B|-------------------|----------------10--|
G|-------------------|-----------------9--|
D|-------------------|--------------------|
A|--0-0-0-0-0-0-0-0--|--0-0-0-0-0-0-0-----|
E|-------------------|--------------------|
  Breaking the law     Breaking the law


VERSE II
e|-----------------------|----------------------|
B|-----------------------|----------------------|
G|--2--------------------|--5-----------2-------|
D|--2--------------------|--5-----5-----2-------|
A|--0--------------------|--3-----5-----0-------|
E|-----------------------|--------3-------------|
  So much for the golden future, I can't even start

e|-----------------------|----------------------|
B|-----------------------|----------------------|
G|--2--------------------|--5-----7-----9-------|
D|--2--------------------|--5-----7-----9-------|
A|--0--------------------|--3-----5-----7-------|
E|-----------------------|----------------------|
I've had every promise broken, there's anger in my heart

e|-----------------------|----------------------|
B|-----------------------|----------------------|
G|-----------------------|--5-------------------|
D|--3--------------------|--5-------------------|
A|--3--------------------|--3-------------------|
E|--1--------------------|----------------------|
  You don't know what's it like, you don't have a clue

e|-----------------------|----------------------|
B|-----------------------|----------------------|
G|-----------------------|----------------------|
D|--3--------------------|--2-------------------|
A|--3--------------------|--2-------------------|
E|--1--------------------|--0-------------------|
  If you did you'd find youself doing the same thing too


CHORUS
e|---------------------|--------------------|---------------------|
B|---------------------|---10---------------|----------------10---|
G|*-------------------*|*---9---------------|-----------------9--*|
D|*-------------------*|*-------------------|--------------------*|
A|---0-0-0-0-0-0-0-0---|-------0-0-0-0-0-0--|--0-0-0-0-0-0-0------|
E|---------------------|--------------------|---------------------|
  Breaking the law       Breaking the law    Breaking the law

e|-------------------|--------------------|
B|-------------------|----------------10--|
G|-------------------|-----------------9--|
D|-------------------|--------------------|
A|--0-0-0-0-0-0-0-0--|--0-0-0-0-0-0-0-----|
E|-------------------|--------------------|
  Breaking the law     Breaking the law


RIFF 2
e|--------------------------|--------------------------|
B|--------------------------|--------------------------|
G|*-------------------------|-------------------------*|
D|*--4---------4------------|--4---------4------------*|
A|---2---------2---0--0--0--|--2---------2---0--0--0---|
E|--------------------------|--------------------------|


RIFF 3
e|-----------------|---------------|----------------|-----------------|
B|-----------------|---------------|----------------|-----------------|
G|*---7------------|--10-----5-----|---7------------|--10-----12-----*|
D|*---7------------|--10-----5-----|---7------------|--10-----12-----*|
A|----5------------|--8------3-----|---5------------|--8------10------|
E|-----------------|---------------|----------------|-----------------|
  You don't know what it's...       ....like


RIFF 4 (play 2 times)
e|-------------------------------|--------------------------------|
B|-------------------------------|--------------------------------|
G|*------------------------------|-------------------------------*|
D|*--7--9--10--7-9--10--7-9--10--|---------7--------7-----10--9--*|
A|-------------------------------|--8--10-----8-10-----10---------|
E|-------------------------------|--------------------------------|

 

Source Ttabs

Lien à poster
Partager sur d’autres sites
  • 2 weeks later...
  • 3 months later...
  • 1 year later...

Veuillez vous connecter pour commenter

Vous pourrez laisser un commentaire après vous êtes connecté.



Connectez-vous maintenant
×
×
  • Créer...