Aller au contenu
mikelg

[Kavinsky] Roadgame

Messages recommandés

Bonjour à tous,

 

j'ai retourné google dans toutes les langues pour essayer de trouver une tab ou une video guitar de Kavinsky - RoadGame (ou la musique de la nouvelle publicité mercedes classe A),

 

pour le moment je n'ai trouvé qu'une cover piano mais j'ai du mal à retranscrire sur gratte =/

 

http://www.youtube.com/watch?v=uTNv-iNNbAg

Modifié par toffy

Partager ce message


Lien à poster
Partager sur d’autres sites

Bonjour, regarde je pense que c'est ce que tu cherche, comme moi egalement, je cherchais, Bonne journée musicale a toi...

Partager ce message


Lien à poster
Partager sur d’autres sites

Hello, je te propose ça, la première partie est à jouer sans les basses la première fois, ensuite si tu veux les jouer c'est à la limite du possible mais faisable avec de l'entraînement (désolé c'est impossible à tabler plus simplement), et la deuxième partie est un bon petit exercice de rythmique, enjoy!

 

E||--------4--------4--------|--4--------4--------4-----|
B||-----7--------7--------7--|--------7--------7--------|
G||--6--------6--------6-----|-----6--------6--------6--|
D||--------------------------|--------------------------|
A||--4-----------------------|--------------------------|
E||--------------------------|-----------------7--------|

E E E E E E E E	 E E E E E E E E
--------7--------7--------|--7--------7--------7-----|
-----9--------9--------9--|--------9--------9--------|
--6--------6--------6-----|-----6--------6--------6--|
--------------------------|--------------------------|
--0-----------------------|--------------------------|
--------------------------|--------------------4-----|

E E E E E E E E	 E E E E E E E E
-----5--------5--------5--|--------5--------5--------|
--------7--------7--------|--7--------7--------7-----|
--6--------6--------6-----|-----6--------6--------6--|
--------------------------|--------------------------|
--------------------------|--------------------------|
--2-----------------------|-----------------4--------|

E E E E E E E E	 E E E E E E E E
-----4--------4--------4--|-----4--------------------|
--------5--------5--------|--------5--------4--5--7--|
--6--------6--------6-----|--6--------6--6-----------|
--------------------------|--------------------------|
--0-----------------------|--2-----------------------|
--------------------------|--------------------------|

E E E E E E E E	 E E E E E E E E
--------------------------|--------------------------|
--------------------------|-----------------4--------|
--6-----------------------|-----6-----------4--------|
--6-----------------------|-----6--------------------|
--4--4--4--4--4--4--4--4--|--4--4--4--4--4--2--2--2--|
--------------------------|--------------------------|

E E E E E E E E	 E E E E E E E E
--0-----------------------|-----------------0--------|
--2-----------------------|-----2-----------2--------|
--2-----------------------|-----2--------------------|
--------------------------|--------------------------|
--0--0--0--0--0--0--0--0--|--0--0--0--0--0-----------|
--------------------------|-----------------4--4--4--|

E E E E E E E E	 E E E E E E E E
--2-----------------------|--2--------0--------------|
--2-----------------------|--2--------2-----4--------|
--2-----------------------|--2--------2--------------|
--------------------------|--------------------------|
--------------------------|--------------------------|
--2--2--2--2--2--2--2--2--|--2--2--2--2--2--4--4--4--|

E E E E E E E E	 E E E E E E E E		
--0-----------------------|--------------------------|-----||
--2-----------------------|--4-----------------------|-----||
--2-----------------------|--1-----------------------|-----||
--------------------------|--------------------------|-----||
--0--0--0--0--0--0--0--0--|--2--2--2--2--2--2--2--2--|-----||
--------------------------|--------------------------|-----||

ka.gp5

Partager ce message


Lien à poster
Partager sur d’autres sites

Veuillez vous connecter pour commenter

Vous pourrez laisser un commentaire après vous êtes connecté.



Connectez-vous maintenant

×
×
  • Créer...