Aller au contenu

[La Rue Kétanou] Sur le chemin de la bohème


Messages recommandés

voilà le seul truc que j'ai trouvé:

Accords:
Gm (355333) 
C (032010)
Dm (000231)
Bb (113331)
A (002220)

Gm		C	Dm
Bb	Gm		Dm
Gm		C	Dm
Bb	Gm		Dm
Bb	Gm		Dm
Bb	Gm		Dm
Bb	Gm		Dm
Dm	Bb	Gm	A

Lien à poster
Partager sur d’autres sites

Sinon je viens de trouver celle- là; je ne l'ai pas testée car je ne connais pas du tout cette chanson; ni le groupe d'ailleurs.

Accords :

Gm: (10)(10)(12)(12)(11)(10) et 355333 en alternance 1 fois sur 2
**Sur la tab : Gm1 et Gm2
C:  8(10)(10)988
Dm: 557765
Bb: 688766
A:  577655

// Intro:

**Il faut faire la basse avec le pouce


     Gm1     Gm1     C       C     Dm      Dm     Dm      Dm

E|----10------10-|----8-------8-|----5-------5-|----5-------5-|
B|----11------11-|----8-------8-|----6-------6-|----6-------6-|
G|----12------12-|----9-------9-|----7-------7-|----7-------7-|
D|----12---12----|---10------10-|----7-----7---|----7-----7---|
A|-10------------|---10---10----|--5-----------|--5-----------|
E|---------------|-8------------|--------------|--------------|


    Bb	     Bb      Gm2    Gm2     Dm     Dm      Dm     Dm

E|----6-------6--|----3------3--|----5------5--|----5------5--|
B|----6-------6--|----3------3--|----6------6--|----6------6--|
G|----7-------7--|----3------3--|----7------7--|----7------7--|
D|----8-------8--|----5------5--|----7----7----|----7----7----|   BIS
A|----8-----8----|----5----5----|--5-----------|--5-----------|
E|--6------------|--3-----------|--------------|--------------|



// Couplets:

**Les accords sont joués normalements


Gm1		C	Dm
Sur les chemins de la bohême
Bb	Gm2		Dm
J'ai croisé le bout du monde
Gm1		C	Dm
Des p'tits matins au café crème
Bb	Gm2		Dm
Où je taxais ma première blonde
Bb	Gm1		Dm
Avant de partir le pouce en l'air
Bb	Gm2		Dm
A l'autre bout du bout du monde
Bb	Gm1		Dm
Avant de partir le pouce en l'air
Dm	Bb		A
A l'autre bout du bout du monde


Sur les chemins de la bohême
J'ai croisé la neige et le soleil
Une fille qui m'a dit je t'aime
Un soir où elle n'avait pas sommeil
Avant de partir le coeur en l'air
A l'autre bout du bout du monde

Sur les chemins de la bohême
J'ai parlé des langues étrangères
Mes pas poursuivaient un poême
Je me suis lavé à l'eau de mer
Avant de chanter des mots en l'air
Sur des musiques vagabondes

Sur les chemins de la bohême
On m'a chouravé ma guitare
Un vieil homme m'a donné la sienne
En me racontant son histoire
Et je lui dédierai cet air
A l'autre bout du bout du monde


** Rythme:

Ca ressemble à peu près à ça. Ecoutez le CD pour bien vous imprégner du rythme!

O = Noire (2x croche)
o = Croche (rapide)
x = Accord étouffé (croche)

---------------------------
O o  oOoO x    etc
---------------------------


// 2e guitare :

B|-8-10--8-10--8--8-10--8-10--8--6-10--6-10--6--6-10--6-10    etc

 

En espérant qu'elle te convienne :guitare:

Lien à poster
Partager sur d’autres sites

Veuillez vous connecter pour commenter

Vous pourrez laisser un commentaire après vous êtes connecté.



Connectez-vous maintenant
×
×
  • Créer...