Aller au contenu
DevilChild

[Led Zeppelin] Stairway to heaven

Messages recommandés

voici l'intro d'une chanson que je joue tout le temps en ce moment. (les commentaires Am, E... au dessus de la 1ere ligne déconnent - pas alignés)

c'est la version d'un live joué à new york

bien laisser les cordes sonner...

et jouer avec ses tripes :guitare:

enjoy it !

 

 

   Intro (Slowly = 76)                                                            
    Am                           Amadd9/G#             C/G          D/F#           
    E                   E  E  E  E         E  E  E     E   E  E  E  E    E  E  E   
E||--5--------5--7---------------7--|--8---------8--2----------2--|
B||-----5------------------5--------|------5-------------3--------|
G||--------5------------------5-----|---------5-------------2-----|
D||--7-----------6------------------|--5------------4-------------|
A||---------------------------------|-----------------------------|
E||---------------------------------|-----------------------------|


 Fmaj7                                G/B    Am                
                           |--3--|                             
 E     E  E  E  E    E  E  S  S  S    E   E  Q    E  E  E  E   
--0-----------------3g5--3--1h-3p-1-|--------------------------|
--------1-----1--L------------------|--0---1--1----L-----------|
-----------2--------3g5--3--2-------|--0---2--2----L-----------|
--3---------------------------------|---------2----L-----------|
------------------------------------|--2---0--0----L--0--8--7--|
------------------------------------|--------------------------|


             Amadd9/G#             C/G          D/F#           
 E  E  E  E  E         E  E  E     E   E  E  E  E    E  E  E   
--------------7---------------7--|--8---------8--2----------2--|
-----------5------------5--------|------5-------------3--------|
--------5------------------5-----|---------5-------------2-----|
-----7--------6------------------|--5------------4-------------|
--0------------------------------|-----------------------------|
---------------------------------|-----------------------------|


 Fmaj7                                   G/B    Am               
 E     E  E  E  E    E  E  T  T  T  T    E   E  Q    Q    E  E   
--0-----------------3g5--3--1h-3p-1p-0-|-------------------------|
--------1-----1--L---------------------|--0---1--1----L----------|
-----------2--------3g5--3--2----------|--0---2--2----L----------|
--3------------------------------------|---------2----L----------|
---------------------------------------|--2---0--0----L----0--2--|
---------------------------------------|-------------------------|


 C           D              Fmaj7            Am               C           G            
 E  E  E  E  E  E  E  E     E     E   E   E  S  S E  E  E     E  E  E  E  E  E  E  E   
-----------0--2--------2--|--0--------(0)--0----------------|-----------0--3--------3--|
--1-----1--------3--------|--------1----------0h-1----------|--1-----1--------0--------|
-----0--------------2-----|------------2-----------2--------|-----0--------------0-----|
--------------0-----------|--3------------------------------|--------------------------|
--3-----------------------|-------------------0-------0--2--|--3-----------------------|
--------------------------|---------------------------------|--------------3-----------|


 D                                C           D            
            |--3--|                                        
 S  S E  E  S  S  S Q    E  E     E  E  E  E  E  E  E  E   
--3p-2--------------------------|-----------0--2--------2--|
--------------------------------|--1-----1--------3--------|
-------0--2--0h-2p-0------------|-----0--------------2-----|
--0------------------4----------|--------------0-----------|
--------------------------0--2--|--3-----------------------|
--------------------------------|--------------------------|


 Fmaj7          Am               C           D            
 E     E  E  E  S  S E  E  E     E  E  E  E  E  E  E  E   
--0-----------0----------------|-----------0--2--------2--|
--------1--------0h-1----------|--1-----1--------3--------|
-----------2----------2--------|-----0--------------2-----|
--3----------------------------|--------------0-----------|
-----------------0-------0--2--|--3-----------------------|
-------------------------------|--------------------------|


 Fmaj7                                
             |--3--| |--3--|          
 E     E  E  S  S  S S  S  S Q.       
-------------------------------------||
--1-----0--1--3p-1p-0-3p-1p-0-1------||
-------------------------------------||
--3----------------------------------||
-------------------------------------||
-------------------------------------||

 

 

[Message de Slial:

Salut! je te rappelle que tu es supposé inscrire le sujet du message de cette façon: « [Nom artiste] Titre chanson ». ...donc merci de ta compréhension et poste le nom complet de l'artiste, c'est plus facile pour quelqu'un qui utilise le moteur de recherche de trouver ce qu'il cherche !!!

donc poste tes demandes de cette façon la prochaine fois! merci! (là je l'ai corrigé) ]


Can't stop rock'n'roll !

<- C'est pas moi sur la photo

 

http://gibrocksonne.free-h.net/

Partager ce message


Lien à poster
Partager sur d’autres sites

La version non live c'est ça non ?

 

Edit : la mesure qui manque !!!

 

E-------5-7-----7-|-8-----8-2-----2-|-0---------0-----|-----------------|
B-----5-----5-----|---5-------3-----|---1---1-----1---|-0-1-1-----------|
G---5---------5---|-----5-------2---|-----2---------2-|-0-2-2-----------|
D-7-------6-------|-5-------4-------|-3---------------|-----------------|
A-----------------|-----------------|-----------------|-2-0-0---0--/8-7-|
E-----------------|-----------------|-----------------|-----------------|

E---------7-----7-|-8-----8-2-----2-|-0---------0-----|-----------------|
B-------5---5-----|---5-------3-----|---1---1-----1---|-0-1-1-----------|
G-----5-------5---|-----5-------2---|-----2---------2-|-0-2-2-----------|
D---7-----6-------|-5-------4-------|-3---------------|-----------------|
A-0---------------|-----------------|-----------------|-2-0-0-------0-2-|
E-----------------|-----------------|-----------------|-----------------|

E-------0-2-----2-|-0-----0----------|---------3-----3-|-3^2-2-2-------|
B-----------3-----|---1-----0h1------|-1-----1---0-----|-3---3-3-------|
G-----0-------2---|-----2-------2----|---0---------0---|-2-----2-------|
D---2-----0-------|-3----------------|-----2-----------|-0-----0-------|
A-3---------------|---------0----0-2-|-3---------------|----------0-2--|
E-----------------|------------------|---------3-------|---------------|

E---------2-----2-|-0-----0----------|---------------2-|-0-0-0-----------|
B-------1---3-----|---1-----0-1------|-------1-----3---|-1-1-1-----------|
G-----0-------2---|-----2-------2----|-----0-----2-----|-2-2-2-----------|
D---2-----0-------|-3----------------|---2-----0-------|-3-3-3-----------|
A-3---------------|---------0----0-2-|-3---------------|-----------------|
E-----------------|------------------|-----------------|-----------------|

Partager ce message


Lien à poster
Partager sur d’autres sites

La tab de tomax me semble nickel note pour note (de mémoire), sauf qu'il manque une mesure. En tout cas, c'est exactement comme ca que j'ai appris à la jouer, et à l'époque j'avais mis la main sur le songbook.

Partager ce message


Lien à poster
Partager sur d’autres sites

Veuillez vous connecter pour commenter

Vous pourrez laisser un commentaire après vous êtes connecté.



Connectez-vous maintenant

×
×
  • Créer...