Aller au contenu

les accords et moi sa fait 3


Messages recommandés

bonjour,

je vien de commencer la guitare depis deux semaines et sans me venté je me débrouille a pas mal. Ma si j'ai un probleme pour les accord je ne sais pas si je dois "gliser" (si je puis dire) sur toutes les cordes ou que celle indiquer par exemple:

Em 02200x
Cadd9 03200x
G6 3200xx
D/F# 2000xx <-This probably should be 20023x or something 

Occasionally in the heavier parts I substitute Cadd9 for C/G (330210) for a bit of variety. 

intro:
e---------------------|-------------------
B-------0--00-00-000--|-----0--00-00-000--
G-------0--00-00-000--|-----0--00-00-000--
D---2-2-2--22-22-222--|-2-2-2--22-22-222--
A---2-2-2--22-22-222--|-3-3-3--33-33-333--
E---------------------|------------------- 

e---------------------|-------------------
B---------------------|-------------------
G-------0--00-00-000--|-----0--00-00-000--
D-------0--00-00-000--|-----0--00-00-000--
A---2-2-2--22-22-222--|-0-0-0--00-00-000--
E---3-3-3--33-33-333--|-2-2-2--22-22-222-- 

Then you kick your overdrive in and play the top 4 bass strings on each chord. 

I think there is 2 sets of this played ending with a long Em and then the verse. I tend to simulate the bass by playing softly on the strings and then the guitar bits much louder, if you listen to the CD this
seems to be close to what they are doing 

e----------------------|----------------------
B----------------0--0--|----------------0--0--
G----------------0--0--|----------------0--0--
D---2-2-2-2-2-2--2--2--|---2-2-2-2-2-2--2--2--
A---2-2-2-2-2-2--------|---3-3-3-3-3-3--------
E----------------------|----------------------
^ Let ring ^ Let ring 

e----------------------|-----2----------
B----------------------|-------3--------
G----------------0--0--|---------2------ <- Unsure about this bit
D----------------0--0--|--0--------0----
A---2-2-2-2-2-2--2--2--|----------------
E---3-3-3-3-3-3--------|---------------- 

^The lead comes in about here 

The lead riff is
e---7h8--5h7--3h5--2h3p2---------
B------------------------3-3-0--- 

The verse varies a bit but is more or less based on the above.
I haven't worked out the solo yet but seems to use two guitars one playing
a riff based on the lead riff above (well at least it starts like that) 

e---7h8--5h7-7-7-7- Repeat 

Well thats about it, I did work out the little bass riff but I forget how
it goes though it is based around E open, E third, A 5th, A 3rd and A open. 

Lyrics 

Another head hangs lowly
Child is slowly taken
And the violence caused such silence
Who are we mistaken 

but you see, it's not me
it's not my family
in your head, in your head
they are fighting 

Chorus
With their tanks, and their bombs, 
and their bombs, and their guns
In your head, in your head they are cryin'
In your head, In your head
Zombie, etc.
What's in your head in your head, in your head
Zombie, etc. 

Another mother's breakin'
heart is taking over
when the violence causes silence
we must be mistaken
it's the same old theme since 1916
in your head,
in your head they're still fightin' 

Chorus 

je ne sais aps comment sa se joue

merci d'avance pour tout

 

tan76 édit: le lien fonctionne maintenant :top:

Lien à poster
Partager sur d’autres sites

Alors, effectivement, tu ne joues que les cordes indiquées

"0" sont les cordes jouées à vide, et "2", "3" montre sur quelle case tu dois presser la corde

 

Exemple : Em = 02200x, tu ne dois PAS jouer la corde la plus aigue, et poser ton index et ton majeur (ou majeur/annulaire) sur la deuxième et la troisième corde (en partant des cordes les plus graves) sur la case 2 pour former l'accord.

Lien à poster
Partager sur d’autres sites

Alors soit tu grattes avec un médiator, le ptit morceau en plastique là, soit tu grattes avec les doigts, et tu grattes les cordes indiquées (si t'as un "x" tu dois pas jouer la corde)

Lien à poster
Partager sur d’autres sites

J'avoue que c'est chaud, moi qui débute j'ai du mal à croire qu'un jour j'arriverais à jouer les accords (quelles cordes gratter ou pas) les yeux fermés (si si va bien falloir xD )

 

Allez, je => m'entrainer :guitare:

Lien à poster
Partager sur d’autres sites

Veuillez vous connecter pour commenter

Vous pourrez laisser un commentaire après vous êtes connecté.



Connectez-vous maintenant
×
×
  • Créer...