Aller au contenu
Slial

[Les Cowboys fringants] Les étoiles filantes

Messages recommandés

Voilà, on a parlé de cette chanson dernièrement!

Les étoiles filantes; elle est très belle et je suis sûre des accords puisque ce charmant et très talentueux groupe québéçois met toutes ses partitions sur son site web!! [ http://www.cowboysfringants.com/ ] allez faire un tour, il y a aussi des extraits audio et vidéo!

Cette chanson est sur leur dernier album qui se nomme ''La Grande Messe''

 

Les Étoiles Filantes

 

Intro 

 Am                                              G                                            Am

                                                                                           2x
--12----10----12----------12----10----12----------10----8----10---------10----8----10--------|--8-
--------------------10----------------------10---------------------8--------------------8----|----
---------------------------------------------------------------------------------------------|----
---------------------------------------------------------------------------------------------|----
---------------------------------------------------------------------------------------------|----
---------------------------------------------------------------------------------------------|----

Am   G   Em    F      non stop.. toujours pareil

5    3    7    8
7    5    7    10
7    5    9    10
5    4    9    10
5    3    8    8
5    3    7    8



Intro 

Am G (2 fois)

Am G  Em  F (4 fois)


      Am      
Si je m’arrête un instant        
       G
Pour te parler de ma vie
           Em
Juste comme ca tranquillement
       F
Dans un bar rue St-Denis


       Am
J'te raconterai les souvenirs
     G
Bien gravés dans ma mémoire
        Em
De cette époque où vieillir
      F
Était encore bien illusoire


         Am
Quand j'agaçais les p'tites filles
        G
Pas loin des balançoires
       Em
Et que mon sac de billes
       F
Devenait un vrai trésor


        Am
Et ces hivers enneigés
        G
À construire des igloos
        Em
Et rentrer les pieds g'lés
        F
Juste à temps pour Passe-Partout


       Am                               G
Mais au bout du ch'min dis-moi c'qui va rester
       Em                          F
De la p'tite école et d'la cour de récré?
           Am                                G
Quand les avions en papier ne partent plus au vent
      Em                            F
On se dit que l'bon temps passe finalement...
                        Am
... comme une étoile filante


Solo Accordéon

Am G Em (022000) F (133211) (2 fois)


       Am
Si je m'arrête un instant
       G
Pour te parler de la vie
       Em
Je constate que bien souvent
       F
On choisit pas mais on subit,


       Am
Et que les rêves des ti-culs
       G					
S'évanouissent ou se refoulent
       Em
Dans cette réalité crue
        F
Qui nous embarque dans le moule


       Am
La trentaine, la bedaine
       G
Les morveux, l'hypothèque
       Em
Les bonheurs et les peines
         F
Les bons coups et les échecs


      Am
Travailler, faire d'son mieux
      G
En arracher, s'en sortir
      Em
Et espérer être heureux
      F
Un peu avant de mourir


        Am                            G
Mais au bout du ch'min dis-moi c'qui va rester
        Em                             F
De notre p'tit passage dans ce monde effréné?
        Am                       G
Après avoir existé pour gagner du temps
       Em                    F
On s'dira que l'on était finalement

                      Am
... que des étoiles filantes


Interlude 

Am G(2 fois)

Am G Em  F (2 fois)


         Am
Si je m'arrête un instant 
         G
Pour te parler de la vie
           Em
Juste comme ça tranquillement
        F
Pas loin du carré St-Louis


         Am
C'est qu'avec toi je suis bien
           G
Et que j'ai pu l'goût de m'en faire
         Em
Parce que tsé voir trop loin
                 F
C'pas mieux que r'garder en arrière


          Am
Malgré les vielles amertumes
         G
Et les amours qui passent
         Em
Les chums qu'on perds dans' brume
         F
Et les idéaux qui se cassent


          Am
La vie s'accroche et renaît
          G
Comme les printemps reviennent
          Em
Dans une bouffée d'air frais
          F
Qui apaisent les coeurs en peine


           Am                       G
Ça fait que si à soir t'as envie de rester
    Em                               F
Avec moi, la nuit est douce on peut marcher
           Am                                 G    
Et même si on sait ben que tout dure rien qu'un temps
          Em                      F
J'aimerais ça que tu sois pour un moment....

                  Am
... mon étoile filante


Interlude 2 

Am G Em  F (2 fois)

       Am                                G        Em      F
Mais au bout du ch'min dis-moi c'qui va rester...
       Am                                G        Em      F
Mais au bout du ch'min dis-moi c'qui va rester...
                      Am
...que des étoiles filantes.


--12----10----12----------12----10----12----------12----10----12---------12-
--------------------10----------------------10---------------------10-------
----------------------------------------------------------------------------
----------------------------------------------------------------------------
----------------------------------------------------------------------------
----------------------------------------------------------------------------

Partager ce message


Lien à poster
Partager sur d’autres sites

La petite intro juste avant ''Les étoiles filantes'' (elle est jouée au piano, mais ce joue aussi à la guitare et commence bien la chanson ''Les étoiles filantes''. Encore une fois, je vous conseil leur site, où ils ont des partitions et des extraitx audio et vidéo! un groupe québéçois à découvrire! :) [ http://www.cowboysfringants.com/ ]

 

Intro

 


e-14-12--14-12---------------------------------------------------------12-14-15-17
B------15-----15-15-14-15p14-15-14-12-12-10-10-12-14-14-14-15-14-14-15------------
G---------------------------------------------------------------------------------
D---------------------------------------------------------------------------------
A---------------------------------------------------------------------------------
E---------------------------------------------------------------------------------

e-14-15-17-12-10-12-10-12-14-14-14-15-17-14-15-17-12-10-9-12-10-9-9---9-10-9-9----
B-------------------------------------------------------------------12---------12-
G---------------------------------------------------------------------------------
D---------------------------------------------------------------------------------
A---------------------------------------------------------------------------------
E---------------------------------------------------------------------------------

e-----------------10---22---------------------------------------------------------
B-10-10-10-10-8------8------------------------------------------------------------
G---------------7-----------------------------------------------------------------
D---------------------------------------------------------------------------------
A---------------------------------------------------------------------------------
E---------------------------------------------------------------------------------

ensuite quand il change pour le début d'étoiles filantes:      
e-12-10-12----12-10-12----10-8-10---10-8-10---------------------- 2x
B----------10----------10---------8---------8--------------------
G----------------------------------------------------------------
D----------------------------------------------------------------
A----------------------------------------------------------------
E----------------------------------------------------------------

Partager ce message


Lien à poster
Partager sur d’autres sites

Franchement c'est génial que tu nous mettes ces chansons ! J't'adore !

Allez je vais les imprimer pour les essayer..

 

++

Partager ce message


Lien à poster
Partager sur d’autres sites

Je viens de la jouer, c'est super !

 

Ca me rappelle trop de bons souvenirs et en plus cette chanson est tellement nostalgique...

Euh par contre les accords, je l'ai joué au bout de la guitare (ex Am : 002210) car je ne connais pas encore

très bien les accords en barré.

 

Franchement, super !!

 

Dis Slial, pourquoi ne pas nous mettre un topic sur les mots québecquois qui ne sont pas français (ex : toune, chum, etc...)

Un peu d'exotisme pourraît être très sympa, qu'en penses-tu ?

 

Biz à tous

++

Partager ce message


Lien à poster
Partager sur d’autres sites

hahaha! :D

bonne idée! je vais penser à ça! ;)

[oui, moi aussi je les joue au bout de la guitare, car les barrés, même si je suis capable de sortire un F, un F# et un Bm qui sonnent bien presque tout le temps, :) je trouve ça dur !! ]

 

et puis, SuN, comment tu l'a trouvé?

Partager ce message


Lien à poster
Partager sur d’autres sites

J'ai testé la "toune" et c'est une chanson tranquil... :zen:


anti_sms.gif

Partager ce message


Lien à poster
Partager sur d’autres sites

Au fait si on suit ce qui est écrit au point de vue des accords (barrés) le 8 10 10 10 8 8, ce joue comment, perso, je n'arrive pas à placer mes doigts correctement pour bloquer les cordes en 10. Faut-il mettre les doigts 2,3,4 alignés, ou monté le 3 plus haut, ou utiliser que deux doigts et faire un espece de barré ?

 

Que ceux qui jouent en barré veuillent bien me répondre svp...

Partager ce message


Lien à poster
Partager sur d’autres sites

tu barre en 8 avec ton index et tu places les autres doigts (2, 3 et 4) sur la 10e frette sur les bonnes cordes :)

Partager ce message


Lien à poster
Partager sur d’autres sites
mais c'est plus simple à dire que as faire :p

 

Mouais parce que c'est un peu petit quand même... :/


anti_sms.gif

Partager ce message


Lien à poster
Partager sur d’autres sites

:p

 

bha on prend vite l'habitude de devoir faire des "grands écarts" avec les doigts :p

Partager ce message


Lien à poster
Partager sur d’autres sites

oui... on dirait que nos doigts s'allongent à mesure qu'on joue ;)

(j'imagine que c'ets qu'on gagne en souplesse!)

Partager ce message


Lien à poster
Partager sur d’autres sites

C'est comme dans les rps en fait

 

on gagne des stats... :D

 

Plus on combat les frette et plus on gagne de points

Partager ce message


Lien à poster
Partager sur d’autres sites
oui... on dirait que nos doigts s'allongent à mesure qu'on joue ;)

(j'imagine que c'ets qu'on gagne en souplesse!)

 

Ce que je n'ai pas... :/


anti_sms.gif

Partager ce message


Lien à poster
Partager sur d’autres sites
C'est comme dans les rps en fait

on gagne des stats... :D

Plus on combat les frette et plus on gagne de points

rps? c'est quoi ça? :hum:

Partager ce message


Lien à poster
Partager sur d’autres sites

lol... mais je sais pas non plus ce que ça veux dire :D ...ahh!...role playing game? :hum:

ça pourrais aussi être...

royal proprety garanty? :p

ruse placement grundge? :siffle:

rue près du gouvernement? :D

racomodeur de petit grec ?

Rééducation posturale globale ?

ok, ok, je =>

Partager ce message


Lien à poster
Partager sur d’autres sites

Agréablement surprise de trouver la tablature de ce super morceau qui me tient à coeur...

Bon d'accord, j'avoue, elle est pas pour demain dans mon répertoire celle là, mais quand même :)

 

(au passage, je ne savais pas où écrire ça: super sympa ce site ;) )

Partager ce message


Lien à poster
Partager sur d’autres sites

ah, ce site, il a toutes les bonnes tablatures!!! ;)

contente que tu aime cette chanson! je l'adore moi aussi! bonne pratique! :top:

et en effet, les commentaires, tu peux mettre ça à peu près partout dans le site! ;)

Partager ce message


Lien à poster
Partager sur d’autres sites

c'est des Québecois et ils parlent de la rue St Denis ? :hum: c'est pas la même ou celle de Paris est connue jusque chez vous ?

Partager ce message


Lien à poster
Partager sur d’autres sites

je ne connaissais pas les Cowboys Fringant, eh ben c'est :top:

merci pour la tab ;)

Partager ce message


Lien à poster
Partager sur d’autres sites
c'est des Québecois et ils parlent de la rue St Denis ? :hum: c'est pas la même ou celle de Paris est connue jusque chez vous ?

hihi!

nah, c'est la rue St-Denis au Québec!! Elle est très connue et d'ailleur, «La rue Saint-Denis est située au coeur du Plateau Mont-Royal, elle est connue pour ses nombreux cafés-terrasses, restaurants, librairies et boutiques spécialisées de toutes sortes. »... http://www.la-rue-st-denis.com/

 

 

...et celle de Paris, elle a quoi de spéciale? :hum:

 

 

PS, K-mile, super que tu découvre ce groupe et que tu aimes ça! :top:

PS2: ils ont mit de nouveaux morceaux téléchargeables sur leur site, plein d'extraits audio et vidéo, etc. ...allez jeter un coup d'oeil!

 

 

____________________________________________________________________________________________________________

 

Sujet fusionné par Bloody fingers.

Partager ce message


Lien à poster
Partager sur d’autres sites

Veuillez vous connecter pour commenter

Vous pourrez laisser un commentaire après vous êtes connecté.



Connectez-vous maintenant

×
×
  • Créer...