Aller au contenu

[Les Ogres de Barback] Grand-mère


Messages recommandés

Sujet divisé par chanson!

 

merci à Bérénice de la demande et merci à FOwear d'avoir posté les partition!

 

 

 

Salut tout le monde !

Je recherche des tablatures des Ogres de Barback, leurs mélodie sont vraiment bien.

Bonne journée.

 

 

Message de Slial:

Salut! tu as demandé plusieurs chansons dans un seul sujet, mais ici on classe par chansons, j'ai donc séparé les tablatures individuellement... c'est pourquoi ici tu ne trouvera que la première chansons postée et de plus, je te rappelle que tu es supposé inscrire le sujet du message de cette façon: « [Nom artiste] Titre chanson ». ...donc tu trouvera les autres sous «[Les Ogres de Barback] titre de la chanson »

:)

J'en est trouvé quelques une :

 


J'vous préviens 
qu'si y'a          arrêtez-moi       venez voir dans 
la guerre,        tout de suite,    mes affaires      
D                Em               D                A
|--5---5---5---5-|--7---7---7---7-|--5---5---5---5-|--5---5---5---6-|
|--7---7---7---7-|--8---8---8---8-|--7---7---7---7-|--5---5---5---6-|
|--7---7---7---7-|--9---9---9---9-|--7---7---7---7-|--6---6---6---7-|
|--------7-------|--------9-------|--------7-------|--------7-------|
|5-----------5---|7-----------7---|5-----------5---|7-----------8---|
|----5-----------|----7-----------|----5-----------|----5-----------|


y'aura deux trois   des polissons   qui chanteront   
déserteurs,        réformés,       la main au cœur
Bm               F#               Bm               A
|--7---7---7---7-|--9---9---9---9-|--7---7---7---7-|--5---5---5---5-|
|--7---7---7---7-|--11--11--11--11|--7---7---7---7-|--5---5---5---5-|
|--7---7---7---7-|--11--11--11--11|--7---7---7---7-|--6---6---6---6-|
|--------9-------|--------11------|--------9-------|--------7-------|
|9-----------9---|9-----------9---|9-----------9---|7-----------7---|
|----7-----------|----9-----------|----7-----------|----5-----------|


la la la          la la la          la la la        
D                A                D                A
|--5---5---5---5-|--5---5---5---5-|--5---5---5---5-|--5---5---5---5-|
|--7---7---7---7-|--5---5---5---5-|--7---7---7---7-|--5---5---5---5-|
|--7---7---7---7-|--6---6---6---6-|--7---7---7---7-|--6---6---6---6-|
|--7---7---7---7-|--7---7---7---7-|--7---7---7---7-|--7---7---7---7-|
|--5---5---5---5-|--7---7---7---7-|--5---5---5---5-|--7---7---7---7-|
|--5---5---5---5-|--5---5---5---5-|--5---5---5---5-|--5---5---5---5-|


Et si y'a révolution     venez voir
arrêtez moi tout de suite,    l'habitation    qui entoure ma suite,
D                Em               D                A
|--5---5---5---5-|--7---7---7---7-|--5---5---5---5-|--5---5---5---6-|
|--7---7---7---7-|--8---8---8---8-|--7---7---7---7-|--5---5---5---6-|
|--7---7---7---7-|--9---9---9---9-|--7---7---7---7-|--6---6---6---7-|
|--------7-------|--------9-------|--------7-------|--------7---8---|
|5-----------5---|7-----------7---|5-----------5---|7---------------|
|----5-----------|----7-----------|----5-----------|----5-----------|


y'aura de bonnes   des cocktails     des tire-flemme   
préparations,     façon maison,    et des lance-cœur  
Bm               F#               Bm               A
|--7---7---7---7-|--9---9---9---9-|--7---7---7---7-|--5---5---5---5-|
|--7---7---7---7-|--11--11--11--11|--7---7---7---7-|--5---5---5---5-|
|--7---7---7---7-|--11--11--11--11|--7---7---7---7-|--6---6---6---6-|
|9-----------9---|11----------11--|9-----------9---|7-----------7---|
|----9-----------|----9-----------|----9-----------|----7-----------|
|--------7-------|--------9-------|--------7-------|--------5-------|

Mais faudra pas  si après vous          et que nous,     
venir pleurer   êtes tous tués    même emprisonnés,  
D       G        A                G                A
|--5---5---3---3-|--5---5---5---5-|--3---3---3---3-|--5---5---5---5-|
|--7---5---3---3-|--5---5---5---5-|--3---3---3---3-|--5---5---5---5-|
|--7---7---4---4-|--6---6---6---6-|--4---4---4---4-|--6---6---6---6-|
|7-------5-------|----------------|----------------|----------------|
|----5-------5---|7-------7-------|5-------5-------|7-------7-------|
|----------------|----5-------5---|----3-------3---|----5-------5---|

la la la          la la la          la la la        
D                A                D                A
|--5---5---5---5-|--5---5---5---5-|--5---5---5---5-|--5---5---5---5-|
|--7---7---7---7-|--5---5---5---5-|--7---7---7---7-|--5---5---5---5-|
|--7---7---7---7-|--6---6---6---6-|--7---7---7---7-|--6---6---6---6-|
|--7---7---7---7-|--7---7---7---7-|--7---7---7---7-|--7---7---7---7-|
|--5---5---5---5-|--7---7---7---7-|--5---5---5---5-|--7---7---7---7-|
|--5---5---5---5-|--5---5---5---5-|--5---5---5---5-|--5---5---5---5-| 

 

 

SOURCE : http://www.broz-reggae-tabs.com/tab_post/liste_tab.php?n=232

 

Voilà j'espere que ça ira :/

Lien à poster
Partager sur d’autres sites
  • 2 weeks later...

Veuillez vous connecter pour commenter

Vous pourrez laisser un commentaire après vous êtes connecté.



Connectez-vous maintenant
×
×
  • Créer...