Aller au contenu
Baka

[Les Wriggles] Des laisses

Messages recommandés

Très jolie chanson que j'ai découvert récemment

 

A ce propos, ma soeur m'a offert pour mon anniv' deux places pour aller les voir ! :D):D):D)

Vive ma vie, place à la tablature :

 

[daily]

[/daily]

 

REFRAIN/COUPLET:
   G           C              D           Em
e|------3---3-------0---0---|------2---2-------0---0---|
B|------3---3-------1---1---|------3---3-------0---0---|
G|----0---0---0---0---0---0-|----2---2---2---0---0---0-|
D|--------------------------|--------------------------|
A|--------------3-----------|--------------------------|
E|--3-----------------------|--2-----------0-----------|

   C           Am             D           D
e|------0---0-------0---0---|------2---2-------2---2---|
B|------1---1-------1---1---|------3---3-------3---3---|
G|----0---0---0---2---2---2-|----2---2---2---2---2---2-|
D|--------------------------|--0-----------------------|
A|--3-----------0-----------|--------------0-----------|
E|--------------------------|--------------------------|

PONT:
   B           B*             Em          C
e|------2---2-------2---2---|------0---0-------0-------|
B|------4---4-------4---4---|------0---0-------1-------|
G|----4---4---4---4---4---4-|----0---0---0---0---0---0-|
D|--------------1-----------|--------------------------|
A|--2-----------------------|--------------3-------2---|
E|--------------------------|--0-----------------------|

   Am          Am             C           D
e|------0---0-------0---0---|------0---0-------2---2---|
B|------1---1-------1---1---|------1---1-------3---3---|
G|----2---2---2---2---2---2-|----0---0---0---2---2---2-|
D|--------------2-----------|--------------0-----------|
A|--0-----------------------|--3-----------------------|
E|--------------------------|--------------------------|

REFRAIN:
Hola Cariño
Eres un compañero tan guapo
Y recordaré tu cuerpo salvo
Si te olvido

COUPLET
Sur mon SMS elle me laisse
Un rendez-vous place des Abbesses
J'hésite à acheter des fleurs

Dans le restaurant elle me laisse
Confondre désir et promesse
J'envie ses lèvres à sa serviette
Au mégot de sa cigarette

PONT
Au fond du taxi elle me laisse
Emmêler mes doigts dans ses tresses
J'écorche à peine quelques mots doux
Son nez se frotte à mes genoux

Quand vient le moment elle me laisse
Creuser mon sillon de caresses
Je lâche des soupirs dans son être
Ses parfums secrets me pénètrent

REFRAIN

Serré dans ses bras elle me laisse
Sourire aux heures qui disparaissent
La paresse cède un peu d'espace
Nos rêves et nos corps se délacent

PONT
Sur le drap du lit elle me laisse
L'empreinte du dos et des fesses
Le parfum coco d'un gel douche
L'auréole de l'eau de sa bouche

Le matin venu elle me laisse
Tomber du haut de sa tendresse
D'un regard qui dit "t'es tout seul"
Elle prend ses distances dans ma gueule

REFRAIN

 

Source : ABC Tabs


Sa Grandeur, le Vicompte du Domaine Floodesque

Jam en ligne !! <---

Partager ce message


Lien à poster
Partager sur d’autres sites

Veuillez vous connecter pour commenter

Vous pourrez laisser un commentaire après vous êtes connecté.



Connectez-vous maintenant

×
×
  • Créer...