Aller au contenu
Baka

[Les Wriggles] Fantasme

Messages recommandés

J'ai trouvé cette tab plutôt complète,

les accords des Wriggles ne sont pas trop difficiles, et la rythmique est vraiment entrainante,

Donc pour ceux qui ont envie de chanter sur des airs un peu plus Fun : LES WRIGGLES ! :D

 

Je vais en poster quelques autres prochainement :)

 

 

Fantasme... - Les Wriggles


Couplets :
----------

Deux fois :

E --10----6-----8----10----
B --11----8-----8----10----
G --12----7-----9----11----
D --12----8----10----12----
A --10----6----10----12----
E --10----6-----8----10----

Une fois :

E --7----3----0----3----0-----8----3----3----0----0----
B --8----5----3----3----0-----8----5----5----3----3----
G --9----4----5----4----0-----9----4----4----5----5----
D --9----5----4----5----2----10----5----5----4----4----
A --7----3----5----5----2----10----3----3----5----5----
E --7----3----0----3----0-----8----3----3----0----0----

Refrain :
---------

Trois fois :

E --3----0----3----3----
B --5----3----3----3----
G --4----5----4----4----
D --5----4----5----5----
A --3----5----5----5----
E --3----0----3----3----

Une fois :

E --3----0----6----0----
B --5----3----6----4----
G --4----5----7----4----
D --5----4----8----3----
A --3----5----8----4----
E --3----0----6----0----



Paroles :
---------

Sur tout les continents,
Les malades comme les bien portants
Tous les peuples,
Toutes les tribus,
Depuis le tout début...

Pendant l'adolescence,
C'est de l'accoutumance
Après faut voir,
C'est chacun son histoire.

Encore un fantasme qui s'en va dans le lavabo
Encore un orgasme en solo

Par expemble au réveil
Ou pour trouver le sommeil
Automne, hiver, printemps, été,
Pour certains c'est tous les jours de l'année

Parce qu'on est content, de temps en temps
Parce que ça détend, pour passer le temps
Parce qu'on est trop pressé, parce qu'on est trop stressé
Des fois sans faire exprès...
- Bah non !
- Si, si...
- Ah ouais ?

Encore un fantasme qui s'en va dans le lavabo
Encore un orgasme en solo

Les jeunes, les vieux, les ouvriers, les patrons
Dans la maison du bon Dieu ; les gentils, les tarés, les pauvres cons
A l'internat c'est du chacun pour sois
Dans les casernes c'est branle-bas combat

A la maison Blanche, au Kremlin, à l'Elysée
Entre deux débats dans les toilettes de l'Assemblée
Le commandant de bord pendant Paris-Francfort
Le Dalaï Lama, le Pape, Jésus ou n'importe quel barbu...

- Et à l'hôtel ?
- Ah j'y avais pas pensé
- Et en prison ?
- Ouais, j'crois qu'c'est toléré, ouais...

Dans les toilettes du TGV, c'est plausible
Dans les couchettes d'un camion d'routier, c'est archi crédile
A l'hôpital, sûrement après un enterrement, ca s'peut
Dans une morgue... C'est...
- C'est dégueu...
- Ah t'es degueu !

Avant d' passer à l'acte, c'est ton choix.
- Eh les gars on s'fait un concours
- A vos marques...
- Et 1... 2... 3...

[Version Live]
- Et avant le spectacle, c'est moi p'être ?

Encore un fantasme qui s'en va dans le lavabo
Encore un orgasme en solo

:D


Sa Grandeur, le Vicompte du Domaine Floodesque

Jam en ligne !! <---

Partager ce message


Lien à poster
Partager sur d’autres sites

Veuillez vous connecter pour commenter

Vous pourrez laisser un commentaire après vous êtes connecté.



Connectez-vous maintenant

×
×
  • Créer...