Aller au contenu
Baka

[Les Wriggles] La soirée se barre en couille

Messages recommandés

Cette musique, que dis-je, ce chef-d'oeuvre :D), est vraiment génialissime :D

A conseiller vivement ^^

 

 

[daily]

[/daily]

 

 

 

INTRO: G G Bb A-G#


G
C'est notre premier rendez-vous ce soir
Une semaine que je ne dors pas
Bb
Elle m'a promis de ne pas être en retard
A                         G#
Ah ! la voilà, les voilà... "J'te présente Nicolas"


"Enchanté Nico. C'est ton frère?..."
"C'est mon mec. Il fait Art Déco"
Si vous voulez du vin / Si vous voulez du gâteau
Moi ça va j'ai plus faim / J'viens de me manger un râteau


La soirée se barre en couille
La soirée se barre... (x4)


Dans la rue, ils s'enlacent / Dans le taxi, ils s'embrassent
Ils me dégoûtent, ils dégoûtent / C'est dégueulasse
Je regarde la route et les lumières d'un quartier
Où j'aimerais pas me faire chier, assis sur les marches d'escalier


La boîte où on m'emmène, c'est de la merde
Je dis "c'est grand quand même, faut pas qu'on se perde"
Les lumières, c'est pourri, ils sont tous en costard
La picole, c'est gratuit, je me colle au bar


D# Bb
Pendant qu'elle danse avec lui / Un whisky
Cm G#
Les yeux dans l'eau / Un morrito
D# Bb
Hotel California / Un vodka
G# Cm
Babacar / Un Ricard
F G#
Sur la route de Memphis / Un pastis
G# G#
Les gondoles à Venise / Un gin fizz 
Cm Bb
C'est ça, être père / Six bières!
D# Break
Et j'ai crié / SALOPE!!


Heu...vous...vous vendez pas de clopes hein?...


Autour de moi, y'a des gens qui rigolent
En dansant bourrés sur la compagnie créole
J'vais dégueuler
Laissez moi passer
Autour de moi, y'a une bande de connards
Qui remue du fion sur la danse des canards
Bande d'enculés
Coin-coin, coin-coin

Cm           Bb      G#                (picking suivant)
La soirée se barre, la soirée se barre en couille...


Intro : G
e|--3-----------------------3-----|--3-------------------------3-----|
B|-----------0-----0--------------|-----------0-----0h-1-------------|
G|-------0--------------0-------0-|-------0-------0--------0-------0-|
D|-----0-------0------0-------0---|-----0-------0--------0-------0---|
A|--------------------------------|----------------------------------|
E|--3------3-------3------3-------|--3------3-------3--------3-------|

"C'est la première fois [...]"
   G                                  Bm
|---3-------------------------------|-----------2----------------5-----|
|------------0-----0h-1-------3-----|--3--------------2h-3-------------|
|*-------0-------0--------0-------0-|-------4-------4--------4-------4-|
|*-----0-------0--------0-------0---|-----4-------4--------4-------4---|
|-----------------------------------|--2--------------2----------------|
|---3------3-------3--------3-------|---------2----------------2-------|

 Em(/7)                           G              F#
--0--------------0--------------|-----------3--------------0------|
-----------3--------------3-----|--0--------------2---------------|
-------0--------------0-------0-|-------0--------------3-------3-*|
-----2-------2------2-------2---|-----0-------0------4-------4---*|
--------------------------------|---------------------------------|
--0------0-------0------0-------|--3------3-------2------2--------|

 G                 Bm                Em   G       F#
--3--------3-----|--2--------2-----|--7----3----|--2--------|
--0--------------|--3--------------|--8----3----|--2--------|
--0----0-------0-|--4----4-------4-|--9----4----|--3--------|
--0--0-------0---|--4--4-------4---|--9----5----|--4--------|
--2--------------|--2--------------|--7----5----|--4--------|
--3------3-------|--2------2-------|--7----3----|--2--------|

C'est la première fois qu'on me vire d'une boîte
Quelqu'un m'aide à me relever
J'ai mal partout, je marche pas je boite
En tous les cas, ça le fait rigoler
"Allez, gobe ça, t'auras meilleure mine"
"C'est quoi?" / "C'est des vitamines"
"C'est Chewbacca?" / "Ouais, c'est moi qui les dessine"
"Sympa le cachet d'aspirine... "

G                       Bm
Faut que je téléphone maison
Em                               G
Qu'est-ce que j'ai fait de mon portable
F#
Putain, j'ai perdu mon portable
G
Bon, faut que je trouve une solution
Bm
J'ai qu'à m'appeler sur mon portable
Em
Je cours dans les ruelles de Malmaison
G                    F#
J'trouve une cabine, c'est formidable
Oh ben non, c'est pas croyable
J'ai plus mes cartes, plus mes papiers
Heureusement que j’ai mon portable
J'espère que je vais pas le réveiller
Tibidibidibidi tibidibidibidiii
"Allô?" / "Papa?!" / "Jean-François!"
"Non, y'a pas de Jean-François au numéro que vous avez demandé papa!"
Tibidibidibidi tibidibidibidiii
Tip tip tip tip tiiip

Picking ci-dessus (arrêt sur le Bm au seconde passage)
"Bonjour, vous êtes bien sur le portable de Jean-François, je ne suis pas là pour le moment mais vous pouvez me laisser un message après le bip sonore, n'est pas disponible, vous pouvez laisser un message après le bip sonore"

Am (577558)     D2 (557758) <-- (ce sont en fait un Am et un D2 avec des variations sur la corde e : alternance de case 5 à case 8. enfin c'est pas facile à expliquer comme ça... bon courage!)
"Salut Jean-François,
C'est Jean-François
Je t'appelle parce que j'ai perdu mon portable
Est-ce que tu peux me rappeler sur mon portable
Pour me dire si t'as pas trouvé mes papiers, ça m'arrangerait
J'avais rendez-vous avec la petite nana dont je t'ai parlé
En fait elle est venue avec son mec
Moi, qu'est-ce que j'en ai à branler qu'elle vienne avec son...avec..."



"Qu'est-ce que j'fous [...]"
e|---------------------|---------------------|
B|---------------------|-----------3--2--1---|
G|*-----------2--1--0--|-----2--0-----------*|
D|*-----2--0-----------|--0-----------------*|
A|---0-----------------|---------------------|
E|---------------------|---------------------|

Qu'est-ce que je fous dans cette prison de verre
J'reconnais pas du tout cette partie de l'univers
Am     D2     Am     D2 (en même temps que l'arpège...donc c'est mieux à deux!)
Heureusement, j'ai toujours sur moi mon sabre laser
Je prends mon élan...et je passe à travers



"Qu'est-ce que j'fous dans c'désert [...]"
e|--10--10-10-12--12-12-10--10--|
B|--12--12-12-10--10-10-12--12--|
G|------------------------------|
D|------------------------------|
A|------------------------------|
E|------------------------------|

--12----10-10-10-10-12--12-12-|--15--14--10-------9----9-|
--10----12-12-12-12-10--10-10-|--13--12--12----11---11---|
------------------------------|--------------------------|
------------------------------|--------------------------|
------------------------------|--------------------------|
------------------------------|--------------------------|

--10-------9----9-10----|-----9----9-10--10-10-12--12--|
--12----11---11---12----|--11---11---12--12-12-10--10--|
------------------------|------------------------------|
------------------------|------------------------------|
------------------------|------------------------------|
------------------------|------------------------------|

--10----14-14-14-14-10----|--14-14-14-14--9----14-14-14-14-|
--12----12-12-12-12-12----|--12-12-12-12-11----12-12-12-12-|
--------------------------|--------------------------------|
--------------------------|--------------------------------|
--------------------------|--------------------------------|
--------------------------|--------------------------------|

--10--10-10--9---9--10----|
--12--12-12-11--11--12----|
--------------------------|
--------------------------|
--------------------------|
--------------------------|

Qu'est-ce que je fous dans ce désert
J'ai soif, je me taperais bien une petite bière
Un truc qui désaltère, quoi
Tiens, une boîte de maïs en fer
Mais non, c'est R2D2, vieux frère!!
Mais que faisons-nous dans cette galère

AH!AH!AH!...
Ca, c'est pas le rire de Géant Vert
Am
Jabba, vieux crapaud
D2
T'es venu en chapi, chapeau!

Am   D2   Am   D2
J'aurais pas dû
Gober un acide (bis)


(A Capella)
Sur une route, je marche à poil
J'ai plus une dent, je regarde la terre
Le vent, la mer et les étoiles
Les seules choses qui me rendent pas vénère (2x)

Sur une route, je marche à poil
J'ai plus une dent, je regarde la terre...


Sa Grandeur, le Vicompte du Domaine Floodesque

Jam en ligne !! <---

Partager ce message


Lien à poster
Partager sur d’autres sites

Veuillez vous connecter pour commenter

Vous pourrez laisser un commentaire après vous êtes connecté.



Connectez-vous maintenant

×
×
  • Créer...