Aller au contenu
toffy

[Lynyrd Skynyrd] Simple man

Messages recommandés

Lynyrd Skynyrd - Simple man


Pour la signification de (a-b), regarder la tab.
Couplet
	   (a-b) C	   G		   Am
Well mama told me, when I was young,
   C	  G	   Am
Come sit beside me, my only son.
   C	   G	   Am
And listen closely, to what I say.
    C		   G		    Am
And if you do this, it will help you some sunny day.

Oh take your time, dont live to fast,
Troubles will come, they will pass.
Go find a woman and, you ll find love.
And dont forget son, there is someone up above.
Chorus
And be a simple kind of man,
  Be something, you love and understand,
You will be a simple kind of man,
Oh wont you do this for me son, if you can,
   Couplet
Forget your lust, for the rich s men s gold,
All that you need, is in your soul,
And you can do this, if you try,
All that I want for you my son, is to be satisfied.
Chorus
Couplet
Boy dont you worry, you ll find yourself,
Follow your heart, and nothing else
And you can do this oh babe, if you try,
All that I want for you my son, is to be satisfied.

La plupart du temps ca donne ca (h = hammer ;  / = slide)

(a-b )   C	    G
-------- --------------------------- ---------------------------
-------- ---------------1----------- ---------------------------
-------- ------0-----------0-----0-- --------------0------------
-------- ---------2-----------2----- -----0-----------0-----0---
--0--2-- ---3--------3-------------- --------2-----------2------
-------- --------------------------- --3--------3---------------
  Am7
--------------------------- --------------3-----
---------------1----------- -----------------1--
------2-----------2-----2-- -----2--------------
---------2-----------2----- --------2-----------
---0--------0-------------- --0--------0--------
--------------------------- -------------------- et recommencer au debut (a-b)
Le refrain et le bridge donnent ca, avec une legere disto.
 (a-b)    C	    G	 
-------- --------------------------- ---------------------------
-------- --------------------------- ---------------------------
-------- ---5----------------------- ---------------------------
-------- ---5----------------------- --5------------------------
--0--2-- ---3---------5-/-7-/-5--3-- --5----------5-/-7-/-5--3--
-------- --------------------------- --3------------------------
   Am7
--------------------------- ----------------- 
--------------------------- -----------------
--------------------------- -----------------
--7------------------------ --5/7------------
--7------------------------ --5/7------------
--5-----------------0h3h0-- --3/5------------ et recommencer au debut (a-b)

 

Source ABCTABS

 

http://www.dailymotion.com/video/xoqcm7_lynyrd-skynyrd-simple-man_music?start=0#.UZYHDUo46YE


Un correcteur d’orthographe : Outils,Options,Avancé,cochez : vérifiez l'orthographe lors de la frappe.

Si vous faîtes une faute d'orthographe, le mot sera souligné en rouge, un clic droit sur ce mot vous donnera le bon mot orthographié.

 

Un super luthier à Arras: http://guitartetsens...therie#!atelier

 

Envie de gratter avec moi? Tu es du 62/59? N'hésitez pas à m'envoyer un MP

 

Cherche guitariste débutant / batteur / bassiste / clavieriste pour formation groupe Cover à dIRE sTRAITS

 

http://riki-le-plect...et/?lang=fr De magnifiques médiators

Partager ce message


Lien à poster
Partager sur d’autres sites

Veuillez vous connecter pour commenter

Vous pourrez laisser un commentaire après vous êtes connecté.



Connectez-vous maintenant

×
×
  • Créer...