Aller au contenu

[Mae] Skyline drive


Messages recommandés

voilà:

 

Intro
This is played on the piano, but here are the notes anyway:
e|-----------------
B|-----------------
G|-------------8---
D|-----9-----------
A|-9-------9-------
E|-----------------


Verse

e|-7---6--6/9-7---4---2---2---2---4/6--2---2---2--4/6--2---2---2---
B|---0---0---0---0---0---0---0---0---4---0---0---0---4---0---0---0-
G|-----------------------------------------------------------------
D|-----------------------------------------------------------------
A|-----------------------------------------------------------------
E|-----------------------------------------------------------------

Chorus
Down strokes
B - E - G#m - F# - C#m - E - G#m - F#

Verse

e|-7---6--6/9-7---4---2---2---2---4/6--2---2---2--4/6--2---2---2---
B|---0---0---0---0---0---0---0---0---4---0---0---0---4---0---0---0-
G|-----------------------------------------------------------------
D|-----------------------------------------------------------------
A|-----------------------------------------------------------------
E|-----------------------------------------------------------------

Chorus
Down strokes
B - E - G#m - F# - C#m / E - G#m - A - A# - B 

Bridge
e|-2-------2-------2-------2-------0-------0-------0-------0-------
B|---0---0---0---0---0---0---0---0---4---4---4---4---4---4---4---4-
G|-----3-------3-------3-------3-------4-------4-------4-------4---
D|-----------------------------------------------------------------
A|-----------------------------------------------------------------
E|-----------------------------------------------------------------

e|-----7-------7-------7-------7---0-------0-------0-------0-------
B|---9---9---9---9---9---9---9---9---4---4---4---4---4---4---4---4-
G|-6-------6-------6-------6-----------4-------4-------4-------4---
D|-----------------------------------------------------------------
A|-----------------------------------------------------------------
E|-----------------------------------------------------------------

  B               E               G#m             F#
e|-----------------------------------------------------------------
B|-----------------------------------------------------------------
G|-4-4-4-4-4-4-4-4-9-9-8-6---6-4/6-4-4-4-4-4-4-4-4-9-9-8-11--1111--
D|-4-4-4-4-4-4-4-4-x-x-x-x---x-x---6-6-6-6-6-6-6-6-x-x-x-----x-x---
A|-2-2-2-2-2-2-2-2-7-7-6-4---4-2/4-6-6-6-6-6-6-6-6-7-7-6/9---9-9---
E|-2-2-2-2-2-2-2-2-----------------4-4-4-4-4-4-4-4-----------------

Chorus
Down strokes
B - E - G#m - F# - C#m / Eb / E - G#m - A - A# - B

End on B

Lien à poster
Partager sur d’autres sites

Veuillez vous connecter pour commenter

Vous pourrez laisser un commentaire après vous êtes connecté.



Connectez-vous maintenant
×
×
  • Créer...