Aller au contenu

[Metallica] The unforgiven II


Messages recommandés

Metallica encore et encore !

 

Metallica - Unforgiven II




Intro   (Distorsion)

E--------------------------------------------------------------------
B--------------------------------------------------------------------
G--------------------------------------------------------------------
D--------------------------------------------------------------------
A--0--0--2--3--5p3h5--5/7--5--3h5p3--3--0--2--3--5p3h5--/5--0--0h2-0-
E--------------------------------------------------------------------

Intro part 2 (second guitar played with intro part 1)
E----------------------------------
B----------------------------------
G-2--2--5--------2--2--5-----------
D-2--2--5--5-----2--2--5--5xx------
A-0--0--3--5--2--0--0--3--5xx--1xx-
E----------3--0-----------3xx--0xx-

Main verse   (Acustic Giutar)
E--------0-----------------------3--3------3----------------------
B-----------2-----------------3^----3^-------3^-----0-----1/31---
G--------------------------0---------------------------0--2/42p0-
D-----2-----------------2-----------------------------------------
A--0-----------0--2--3--------------------------------------------
E---------------------------------------3--------0----------------


Intro part again with intro part 2
E--------------------------------------------------------------------
B--------------------------------------------------------------------
G--------------------------------------------------------------------
D--------------------------------------------------------------------
A--0--0--2--3--5p3h5--5/7--5--3h5p3--3--0--2--3--5p3h5--/5--0--0h2-0-
E--------------------------------------------------------------------


Main verse   (Acustic Giutar)
E--------0-----------------------3--3------3----------------------
B-----------2-----------------3^----3^-------3^-----0-----1/31---
G--------------------------0---------------------------0--2/42p0-
D-----2-----------------2-----------------------------------------
A--0-----------0--2--3--------------------------------------------
E---------------------------------------3--------0----------------


But there´s no sun shining ...........
E--------------------------------------0-
B--------3--------1-----------------1--0-
G-----2--------2-----------0-----2-----2-
D--0--------3-----------------3--------2-
A-----------------------2--------------0-
E--------------------3-------------------


What ivé felt...............
E--------------------------------------------------------------------------------------------
B--0--1--1-1-1--0--1-1--0--3--3-3--3-1-1--0--0--1--1-1--1--0-1--1--0--3-3-3------------------
G--2--2--2-2-2--2--2-2--0--0--0-0--0-0-0--0--2--2--2-2--2--2-2--2--0--0-0-0--/7-5-4-4h5-4----
D--2--2--2-2-2--2--2-2-----------------------2--2--2-2--2--2-2--2-------------------------7-
A--0-----------------------------------------0-----------------------------------------------
E--------------------------------------------------------------------------------------------

Intro part again with intro part 2
E--------------------------------------------------------------------
B--------------------------------------------------------------------
G--------------------------------------------------------------------
D--------------------------------------------------------------------
A--0--0--2--3--5p3h5--5/7--5--3h5p3--3--0--2--3--5p3h5--/5--0--0h2-0-
E--------------------------------------------------------------------


Main verse   (Acustic Giutar)
E--------0-----------------------3--3------3----------------------
B-----------2-----------------3^----3^-------3^-----0-----1/31---
G--------------------------0---------------------------0--2/42p0-
D-----2-----------------2-----------------------------------------
A--0-----------0--2--3--------------------------------------------
E---------------------------------------3--------0----------------


James part in the second verse
E--8------8------8-----8-----7-----7-----7-----7----
B--10-----10-----8-----8-----8-----8-----9-----9----
G------9------9-----9-----9-----7-----7-----9-----9-
D---------------------------------------------------
A---------------------------------------------------
E---------------------------------------------------


Yes she´ll be there when im gone ........
E--------------------------------------0-
B--------3--------1-----------------1--0-
G-----2--------2-----------0-----2-----2-
D--0--------3-----------------3--------2-
A-----------------------2--------------0-
E--------------------3-------------------


What ivé felt...............
E--------------------------------------------------------------------------------------------
B--0--1--1-1--1--0-1--1-0--3--3-3--3-1-1--0--0--1--1-1--1--0-1--1--0--3-3-3------------------
G--2--2--2-2--2--2-2--2-0--0--0-0--0-0-0--0--2--2--2-2--2--2-2--2--0--0-0-0--/7-5-4-4h5-4----
D--2--2--2-2--2--2-2--2----------------------2--2--2-2--2--2-2--2-------------------------7-
A--0-----------------------------------------0-----------------------------------------------
E--------------------------------------------------------------------------------------------


Now im going to type out the solo, but first im going to show how the second
guitar plays and if you dont understand how i mean, just listen to the cd.

E----------------------------------
B----------------------------------
G-2--2--5--------2--2--5-----------
D-2--2--5--5-----2--2--5--5xx------    Then you just play the chours part until its
A-0--0--3--5--2--0--0--3--5xx--1xx-    finshed
E----------3--0-----------3xx--0xx-


E-------------------------------------------------------------
B------------5-7-7^-------------------------------------------
G------------5-7-7^-5-4-5-4h5p4---4----------17-19^-17-----17-
D--/7--7-7-7--------------------7---5-5-5/19-----------19-----
A-------------------------------------------------------------
E-------------------------------------------------------------


E--------------------------------------------------------------------
B------20----20-----20----20-20--20-20---------------20^-20^-20^-20^-
G--19^----19----19^----19----19^-19-19^-19^-17----17-----------------
D----------------------------------------------19--------------------
A--------------------------------------------------------------------
E--------------------------------------------------------------------

E------17-----------------17---------------17----------17----------------------
B--/17----17--^20~~~--/17----17--^20~--/17----17--20^-----20-17----------------
G---------------------------------------------------------------19p17-19p17----
D---------------------------------------------------------------------------19-
A------------------------------------------------------------------------------
E------------------------------------------------------------------------------

E------------------------------------------------------------------------------
B--19-17----19-17----19-17----19-17-------------------------------------19-17-
G--19-17----19-17----19-17----19-17----17-19-19^p17----17-19-19^^p17----19-17-
D--------19-------19-------19-------19--------------19---------------19--------
A------------------------------------------------------------------------------
E------------------------------------------------------------------------------


E-------------------------------
B-------------------------------
G-----5-------------------------
D--/7---7-5---5-----------------
A-----------7---7-6-5-3---5-3-0-
E-----------------------5-------


Intro part again with intro part 2
E--------------------------------------------------------------------
B--------------------------------------------------------------------
G--------------------------------------------------------------------
D--------------------------------------------------------------------
A--0--0--2--3--5p3h5--5/7--5--3h5p3--3--0--2--3--5p3h5--/5--0--0h2-0-
E--------------------------------------------------------------------



Main verse   (Acustic Giutar)
E--------0-----------------------3--3------3----------------------
B-----------2-----------------3^----3^-------3^-----0-----1/31---
G--------------------------0---------------------------0--2/42p0-
D-----2-----------------2-----------------------------------------
A--0-----------0--2--3--------------------------------------------
E---------------------------------------3--------0----------------



Now i see the sun ...........
E--------------------------------------0-
B--------3--------1-----------------1--0-
G-----2--------2-----------0-----2-----2-
D--0--------3-----------------3--------2-
A-----------------------2--------------0-
E--------------------3-------------------



What ivé felt...............
E--------------------------------------------------------------------------------------------
B--0--1--1-1--1--0-1--1-0--3--3-3--3-1-1--0--0--1--1-1--1--0-1--1--0--3-3-3------------------
G--2--2--2-2--2--2-2--2-0--0--0-0--0-0-0--0--2--2--2-2--2--2-2--2--0--0-0-0--/7-5-4-4h5-4----
D--2--2--2-2--2--2-2--2----------------------2--2--2-2--2--2-2--2-------------------------7-
A--0-----------------------------------------0-----------------------------------------------
E--------------------------------------------------------------------------------------------


In the end they play the main part in The Unforgiven
The outro is just a strummer of chords that i have´nt figuered out yet

Lien à poster
Partager sur d’autres sites

Veuillez vous connecter pour commenter

Vous pourrez laisser un commentaire après vous êtes connecté.



Connectez-vous maintenant
×
×
  • Créer...