Aller au contenu

[Metallica] To live is to die


Messages recommandés

Voila ca fait longtemp que je voulait la mettre celle la...

Bon y'a plus de partie electrique que acoustic mais les partie acoustic sont tellement belle...

 

                           Metallica - To live is to die


Acoustic: (intro)
                                (de plus en plus fort)
E||-----------8--7--10--7--|--7-----7--------------7---10-|
B||-----------0--5---0--7--|--7-----7--7-------7---7----8-|
G||-----------0------0-----|--7--7--7----7---7-----7------|
D||------------------------|--9--9-----9-----------9------|
A||------------------------|--9---------------------------|
E||------------------------|--7------------7-----7--------|




--10------10--------------------0--0-12--|-----------------7--7---12--|
--10----------------7-8-7-8-7---0--0--0--|-----------8--8-------------|
--11----------11----7-7-7-----9-9-11--9--|*----------9--9--7--7----9--|
--12--12---------------------------------|*---------------------------|
--12-------------12----------------------|-----9--7-------------------|
--10-------------------------------------|--0-------------------------|



--12------12--------8--7--10--7--|--7-----7--------------7---10-|
--12----------12-12-0--5---0--7--|--7-----7--7-------7---7----8-|
--12-----------9--9-0------0-----|--7--7--7----7---7-----7------|
--14--14-------9-----------------|--9--9-----9-----------9------|
--14----------10-----------------|--9---------------------------|
---0-----------------------------|--7------------7-----7--------|


                                      x3
--10------10--------------------0--0-12--|
--10----------------7-8-7-8-7---0--0--0--|
--11----------11----7-7-7-----9-9-11--9-*|
--12--12--------------------------------*|
--12-------------12----------------------|
--10-------------------------------------|





Electric:

----------------------------------|----------------------------------|
----------------------------------|----------------------------------|
----------------------------------|----------------------------------|
----------------------------------|----------------------------------|
----------------------------------|----------------------------------|
--0-0-0-0-0-0-0-0-0-0-0-0-0-0-0-0-|--0-0-0-0-0-0-0-0-0-0-0-0-0-0-0-0-|



|------------------------|------------------------|------------------------|
|------------x--x--------|------------x--x--------|------------x--x--------|
|*-----------x--x--------|------------x--x--------|------------x--x--------|
|*-4----4----x--x--2--4--|--5----5----x--x--5--4--|--4----4----x--x--2--4--|
|--4----4----x--x--2--4--|--5----5----x--x--5--4--|--4----4----x--x--2--4--|
|--2----2----------0--2--|--3----3----------3--2--|--2----2----------0--2--|



-------------------------|------------------------|------------------------|
-------------------------|------------x--x--------|------------x--x--------|
----------x--------------|------------x--x--------|------------x--x--------|
--7----7--x--7--5--5--4--|--4----4----x--x--2--4--|--5----5----x--x--5--4--|
--7----7--x--7--5--5--4--|--4----4----x--x--2--4--|--5----5----x--x--5--4--|
--5----5--x--5--3--3--2--|--2----2----------0--2--|--3----3----------3--2--|



------------------------|-------------------------|------------------------|
------------x--x--------|-------------------------|------------x--x--------|
------------x--x--------|----------x--------------|------------x--x--------|
--4----4----x--x--2--4--|--7----7--x--7--5--5--4--|--4----4----x--x--2--4--|
--4----4----x--x--2--4--|--7----7--x--7--5--5--4--|--4----4----x--x--2--4--|
--2----2----------0--2--|--5----5--x--5--3--3--2--|--2----2----------0--2--|



------------------------|------------------------|-------------------------|
------------x--x--------|------------x--x--------|-------------------------|
------------x--x--------|------------x--x--------|----------x--------------|
--5----5----x--x--5--4--|--4----4----x--x--2--4--|--7----7--x--7--5--5--4--|
--5----5----x--x--5--4--|--4----4----x--x--2--4--|--7----7--x--7--5--5--4--|
--3----3----------3--2--|--2----2----------0--2--|--5----5--x--5--3--3--2--|



------------------------------|------------------------------|
------------------------------|------------------------------|
------------------------------|------------------------------|
------------------------------|------------------------------|
--4--4-4-5--5-5-4--4-4-7--7-7-|--4--4-4-5--5-5-4--4-4-7--7-7-|
--2--2-2-3--3-3-2--2-2-5--5-5-|--2--2-2-3--3-3-2--2-2-5--5-5-|


                                                           x2
--------------------------|------------------------------------|
--------------------------|------------------------------------|
--------------------------|-----------------------------------*|
--------------------------|-----------------------------------*|
-----5-----7-----5-----7--|------------------------------------|
--2--3--2--5--2--3--2--5--|--2-3-2-5-2-3-2-5-2-3-2-5-2h-3-2h-3-|



------------------------|------------------------|------------------------|
------------x--x--------|------------x--x--------|------------x--x--------|
------------x--x--------|------------x--x--------|------------x--x--------|
--4----4----x--x--2--4--|--5----5----x--x--5--4--|--4----4----x--x--2--4--|
--4----4----x--x--2--4--|--5----5----x--x--5--4--|--4----4----x--x--2--4--|
--2----2----------0--2--|--3----3----------3--2--|--2----2----------0--2--|



-------------------------|------------------------|------------------------|
-------------------------|------------x--x--------|------------x--x--------|
----------x--------------|------------x--x--------|------------x--x--------|
--7----7--x--7--5--5--4--|--4----4----x--x--2--4--|--5----5----x--x--5--4--|
--7----7--x--7--5--5--4--|--4----4----x--x--2--4--|--5----5----x--x--5--4--|
--5----5--x--5--3--3--2--|--2----2----------0--2--|--3----3----------3--2--|



------------------------|-------------------------|
------------x--x--------|-------------------------|
------------x--x--------|----------x--------------|
--4----4----x--x--2--4--|--7----7--x--7--5--5--4--|
--4----4----x--x--2--4--|--7----7--x--7--5--5--4--|
--2----2----------0--2--|--5----5--x--5--3--3--2--|



--------------------------------------|---------------------|
--------------------------------------|---------------------|
--------------------------------------|------------2--------|
-----------2--------5-----4-----2-----|------------2--------|
--4-----4--0-----4--3-----2-----0-----|--4---------0--------|
--2-----2--------2--------------------|--2------------------|



------------------------------|--------------------------------------|
------------------------------|--------------------------------------|
------------------------------|--------------------------------------|
-------x-----x--6-----5--4----|-----------2--------5-----4--------2--|
--4----x-----x--4-----3--2----|--4-----4--0-----4--3-----2--------0--|
--2----x-----x----------------|--2-----2--------2--------------------|



--------------------------|------------------------------|
--------------------------|------------------------------|
-----------------2--------|------------------------------|
--------x--x--x--2--------|-------x-----x--6-----5--4----|
--4-----x--x--x--0--------|--4----x-----x--4-----3--2----|
--2-----x--x--x-----------|--2----x-----x----------------|


------------------------|------------------------|------------------------|
------------x--x--------|------------x--x--------|------------x--x--------|
------------x--x--------|------------x--x--------|------------x--x--------|
--4----4----x--x--2--4--|--5----5----x--x--5--4--|--4----4----x--x--2--4--|
--4----4----x--x--2--4--|--5----5----x--x--5--4--|--4----4----x--x--2--4--|
--2----2----------0--2--|--3----3----------3--2--|--2----2----------0--2--|




Rejouer 2X la premiere partie "electric"



|------------------------|
|------------x--x--------|
|------------x--x--------|
|--4----4----x--x--2--4--|
|--4----4----x--x--2--4--|
|--2----2----------0--2--|



------------------------|------------------------|-------------------------|
------------x--x--------|------------x--x--------|-------------------------|
------------x--x--------|------------x--x--------|----------x--------------|
--5----5----x--x--5--4--|--4----4----x--x--2--4--|--7----7--x--7--5--5--4--|
--5----5----x--x--5--4--|--4----4----x--x--2--4--|--7----7--x--7--5--5--4--|
--3----3----------3--2--|--2----2----------0--2--|--5----5--x--5--3--3--2--|



------------------------|------------------------|------------------------|
------------x--x--------|------------x--x--------|------------x--x--------|
------------x--x--------|------------x--x--------|------------x--x--------|
--4----4----x--x--2--4--|--5----5----x--x--5--4--|--4----4----x--x--2--4--|
--4----4----x--x--2--4--|--5----5----x--x--5--4--|--4----4----x--x--2--4--|
--2----2----------0--2--|--3----3----------3--2--|--2----2----------0--2--|



-------------------------|------------------|------------------|
-------------------------|------------------|------------------|
----------x--------------|------------------|------------------|
--7----7--x--7--5--5--4--|------------------|------------------|
--7----7--x--7--5--5--4--|--4----4----x--x--|--5----5----x--x--|
--5----5--x--5--3--3--2--|--2----2----------|--3----3----------|



------------------|---------------|---------------|-----------------|
------------------|---------------|---------------|-----------------|
------------------|--2------------|---------------|*----------------|
--2----2----------|--2------------|--5------------|*-7--------7--2--|
--2----2----x--x--|--0------------|--5------------|--7--------7--2--|
--0----0----------|---------------|--3------------|--5--------5--0--|



-----------------|-----------------|-----------------|-----------------|
-----------------|-----------------|-----------------|-----------------|
-----------------|-----------------|-----------------|--2--------------|
--5--------5--2--|--2--------2--2--|--3------3--5----|--2--------2--5--|
--5--------5--2--|--2--------2--2--|--3------3--5----|--0--------0--3--|
--3--------3--0--|--0--------0--0--|--1------1--3----|-----------------|


                                                    x2
-----------------|------------------|------------------|
-----------------|------------------|------------------|
-----------------|------------------|-----------------*|
-----------7--5--|--9------9--9--7--|-----------------*|
--5--------5--3--|--7------7--7--5--|--5------5-5-5----|
--3--------------|------------------|--3------3-3-3----|






Acoustic:

|--------------------------|-------------------|-------------------|
|--0h--1--------0h-1p-0----|--0----------------|-------------------|
|*--------2-------------2--|-------2-----0-----|--0----------0-----|
|*-----------2-------------|-------------------|-------2-----------|
|--0-----------------------|-------------------|----------2--------|
|--------------------------|--3-------3-----3--|--0-------------0--|



-------------------|-------------------|-------------------|-------------------|
-------------------|--1----------3-----|--3-------0--------|----------------0--|
--0h--2------------|-------2-----------|-------------0-----|--0----------0-----|
---------0---------|----------2--------|-------------------|-------2-----------|
--------------0----|--0----------------|-------------------|----------2-----2--|
--1----------------|----------------0--|--3----3--------0--|--0----------------|



--------------------|------------------------|-------------------|
-------------3p--0--|--1----------0h-1p-0----|--0----------------|
--0-----------------|-------2-------------2--|-------2-----0-----|
-------0------------|----------2-------------|-------------------|
----------2------0--|--0---------------------|-------------------|
--3-----------------|------------------------|--3-------3-----3--|



-------------------|-------------------|-------------------|-------------------|
-------------------|-------------------|--1----------3-----|--3-------0--------|
--0----------0-----|--0h--2------------|-------2-----------|-------------0-----|
-------2-----------|---------0---------|----------2--------|-------------------|
----------2--------|--------------0----|--0----------------|-------------------|
--0-------------0--|--1----------------|----------------0--|--3----3--------0--|


                                    x3 
-------------------|--------------------|
----------------0--|-------------3p--0--|
--0----------0-----|--0-----------------|
-------2-----------|-------0------------|
----------2-----2--|----------2------0--|
--0----------------|--3-----------------|







Electric:

|-----------------|
|-----------------|
|*----------------|
|*-7--------7--2--|
|--7--------7--2--|
|--5--------5--0--|



-----------------|-----------------|-----------------|-----------------|
-----------------|-----------------|-----------------|-----------------|
-----------------|-----------------|-----------------|--2--------------|
--5--------5--2--|--2--------2--2--|--3------3--5----|--2--------2--5--|
--5--------5--2--|--2--------2--2--|--3------3--5----|--0--------0--3--|
--3--------3--0--|--0--------0--0--|--1------1--3----|-----------------|


                                                    x2
-----------------|------------------|------------------|
-----------------|------------------|------------------|
-----------------|------------------|-----------------*|
-----------7--5--|--9------9--9--7--|-----------------*|
--5--------5--3--|--7------7--7--5--|--5------5-5-5----|
--3--------------|------------------|--3------3-3-3----|


|---------------------|------------------|
|---------------------|------------------|
|*--------------------|------------------|
|*-2---------2--------|--2------2--------|
|--0---------0--2--5--|--0------0--2--5--|
|---------------0--3--|------------0--3--|


                                                      x2
------------------|-------------------|-------------------|
------------------|-------------------|-------------------|
------------------|-------------------|------------------*|
--2------2--------|-------------------|------------------*|
--0------0--2--5--|--5----5--5--5--2--|--5----5--5--5--2--|
------------0--3--|--3----3--3--3--0--|--3----3--3--3--0--|


Reprise du debut


Puis outro , meme que l'intro (acoustic)


Lien à poster
Partager sur d’autres sites

Veuillez vous connecter pour commenter

Vous pourrez laisser un commentaire après vous êtes connecté.



Connectez-vous maintenant
×
×
  • Créer...