Aller au contenu
karnows

[MGMT] Kids

Messages recommandés

Bonjour à tous, voilà, pour mon premier post en tant que tabeur ( est-ce que ce mot existe ? ^^' ), je voulais vous présenter une version acoustique de la chanson "Kids" du groupe MGMT.

GUITARE :

 

I/ Accords

 

 

 

 

 

 

Pour la partie guitare , c'est somme toute assez simple, puisqu'il suffit d'enchaîner les quatre accords suivants :

 

F#m
: 22442

D ( en barré de préférence, mais rend tout de même bien en accord simple ) : 557775 ( ou 000232 )

A : 577655

E ( de même que pour le ré ) : 779997 ( ou 022100 )

 

Pour le nombre de temps par accord, je dirais deux, mais pour cette partie, je vous laisse laisser libre cours à votre imagination
;)

 

 

II/ Rythmique

 

 

 

 

 

 

?En ce qui concerne la rythmique, vous avez le choix, soit une rythmique feu de camp, soit une rythmique plus typée reggae ( basse-accord-x-accord ), soit la rythmique originale, qui consiste à jouer les accords uniquement avec des allés ( coup vers le bas )

 

 

III/ Le Riff

 

 

 

 

 

 

Voici la tablature :

 

e|-----------------------------2-----4----2------------------------------|

B|----------------2-----5--------------------5----------2----------------|

G|-----2----4----------------------------------------------------4-------|

D|-----------------------------------------------------------------------|

A|-----------------------------------------------------------------------|

E|-----------------------------------------------------------------------|

 

e|-----------------------------2-----4----2----------------------------|

B|----------------2-----5--------------------5----------2-------------|

G|-----2----4----------------------------------------------------------|

D|-----------------------------------------------------------------------|

A|-----------------------------------------------------------------------|

E|-----------------------------------------------------------------------|

 

e|-----------------------------------------------------------------------|

B|-----------------------------------------------------------------------|

G|----7----6----4----2----4----2----1-------------------------------|

D|-----------------------------------------4----------------------------|

A|-----------------------------------------------------------------------|

E|-----------------------------------------------------------------------|

 

 

 

 

Au cas où vous voudriez reproduire la mélodie sur un autre instrument, voici la partition qui y correspond :

 

130514081817755154.jpg

 

130514081852492704.jpg

 

 

BASSE :

 

 

Voici la tablature pour basse , car oui, je pense au bas
sistes aussi ! ^^
:

 

 

G|-----------------------------------------------------------------------|

D|-----------------------------------------------------------------------|

A|--------9---5---12---7----------------------------------------------|

E|-----------------------------------------------------------------------|

 

 

Jouer autant de fois la note que votre guitariste joue l'accord correspondant.

 

 

 

Voilà, en espérant que cette tablature vous aura plût, petit conseil en mode rapide, vous pouvez toujours ajouter un capo en case 1, le son rend pas mal non plus
;)

 

 

 

 

 

Enjoy la gratouille !

Modifié par IamShrek
Sujet déplacé, le classement est par artiste, pas par titre ;)

Partager ce message


Lien à poster
Partager sur d’autres sites

Veuillez vous connecter pour commenter

Vous pourrez laisser un commentaire après vous êtes connecté.



Connectez-vous maintenant

×
×
  • Créer...