Aller au contenu

Mon colloc à la guitare classique !


Messages recommandés

Tout est dans le titre^^

 

je l'ai filmé fin juillet alors qu'il jouait une pièce de Bach pas forcément répétée de longues heures avant :

 

http://www.youtube.com/watch?v=fbQONfY2qQ0

 

Il est prof de guitare classique, donc y'a du niveau là ;)

 

Là c'est un morceau de classique c'est sympa 2mn mais voilà quoi... donc je vais tenter de le filmer sur Paco de Lucia à l'occaz' :D)

 

nb: si vous avez un compte youtube n'hésitez pas à mettre 5* :)

Lien à poster
Partager sur d’autres sites

c'est vrai qu'au niveau des doigts c'est impressionnant, mais il peut faire encore bcp mieux! Là c'est juste une vidéo que j'ai prise à l'arrche un jour que j'avais l'appareil photo sous la main.

Lien à poster
Partager sur d’autres sites

merci pour lui!!

 

@zaza > j'peux te scanner toutes ses partoches si tu veux, il les laisse tout le temps dans le salon j'ai juste à me servir :D)

mais comme il en a plein, il faudrait que tu me dises celles que tu veux parce que c'est la misère à scanner...

Lien à poster
Partager sur d’autres sites

sun, je ne sait pas ce qu'il a exactement mais comme tu l'entends jouer, je te fais confiance pour le choix musical. De ce qui est de la difficulté technique l'ideal serait d'avoir une "simple" une "intermediaire" et une plus "corsée". ça me ferait rebosser un peu sur ma classique car j'avoue l'avoir délaissée ces derniers mois au profite de l'accoustique... en tout cas merci d'avance !!! :rolleyes:

Lien à poster
Partager sur d’autres sites
  • 3 weeks later...

Je me souviens d'un morceau assez simple en classique, une petite cantilène que j'avais appris en cours y'a quelques années. C'était un truc sympa pour se remettre doucement à la classique (je ne sais pas trop ou le mettre alos je pose la, si c'est pas la bonne place dites le moi)

 

(----)---------|-0-------1-0-1---|-0---------------|-0-------1-0-1---|
---------0-1-3-|-----1---------3-|-----------0-1-3-|-----1---------3-|
-------2-------|-----------------|-----2---2-------|-----------------|
---------------|---------0-------|-----------------|---------0-------|
---------------|-0---------------|-0---------------|-0---------------|
---------------|-----------------|-----------------|-----------------|


-0-----------0-|-1---------------|-0---------------|---------4-1-0---|
-------3-2-3---|-----3---1-0-1-3-|-----1---0---0-1-|-3---0---------3-|
---------------|-----------------|-----------3-----|-----------------|
---------------|-0---------------|-----------------|-----------------|
-0-------------|-----------------|-0---------------|-----------------|
---------------|-----------------|-----------------|-0---------------|


-0-------------|-0-------1-0-1---|-0---------------|-0-------1-0-1---|
---------0-1-3-|-----1---------3-|-----------0-1-3-|-----1---------3-|
-------2-------|-----------------|-----2---2-------|-----------------|
---------------|---------0-------|-----------------|---------0-------|
-0-------------|-0---------------|-0---------------|-0---------------|
---------------|-----------------|-----------------|-----------------|

                                                   ralentir---------
-0-----------0-|-1---------------|-0---------------|---------1-3-0---|
-------3-2-3---|-----3---1-0-1-3-|-----1---0---0-1-|-3---0-----------|
---------------|-----------------|-----------3-----|---------------1-|
---------------|-0---------------|-----------------|-----------------|
-0-------------|-----------------|-0---------------|-----------------|
---------------|-----------------|-----------------|-0---------------|

A Tempo--------
---------------|
---------------|
-2-------------|
---------------|
-----0---2---3-|
---------------|

                                                     Passage 1-------- Passage 2-------- -----------------
-1-0-----0-------|-------------0---|-1-0-----0-------|-----------------|-----------------|-------(--------)|
-----3-----3-1---|-3-1-0---1-3-----|-----3-----3-1---|-3-1-0---1-0-----|-3-1-0-----0-1-0-|-----------------|
-----------------|-----------------|-----------------|-------------2---|-------1-2-------|-2---------------|
-0---------------|-----------------|-0---------------|-----------------|-----------------|-----------------|
---------0-------|---------0-------|---------0-------|---------0-------|-----------------|-----------------|
-----------------|-0---------------|-----------------|-0---------------|-0---------------|-----------------|

reprendre 8 premières mesure. Fin.

 

Je l'ai enregistrée, je posterai le morceau au besoin si ça peut aider a la lecture rythmique ...

Lien à poster
Partager sur d’autres sites

Voila, vous pouvez télécharger un petit truc enregistré rapidement ici : http://www.megaupload.com/fr/?d=X79VUEI4

 

Bon, y'a quelques pains parceque je n'avais pas joué ce morceau depuis un moment pi j'ai eu la flemme de retirer le capo de la guitare experimentale qui m'a servie pour l'enregistrement (du coup c'est un ton au dessus de ce que ça devrait mais bon ...) :D) - ça permet de se faire une idée.

Lien à poster
Partager sur d’autres sites

Oui, c'est un service gratuit mais c'est vrai que c'est pas terrible ...

Bon en fait tu cliques sur le lien au dessus, tu tapes le code qu'il te demande d'entrert en haut (c'est pour vérifier que tu n'es pas un 'robot' de téléchargement) et tu envois, ensuite il va te demander d'attendre une minutes (un petit décompte s'affiche en bas) et quand ce sera fini il te donne le lien vers le fichier.

Voila voila :)

Lien à poster
Partager sur d’autres sites
×
×
  • Créer...