Aller au contenu

morceau pour deux guitares


Messages recommandés

alors voila hier soir j'étais avec un pote qui c'est motiver a se remetre a la gratte apres deux ans d'abstinence et franchement sa va il est pas trop rouiller

et en fait on serait a la recherche d'un morceau sympa sans trop de grosse difficulté du genre picking + accompagnement ou arpege et accompagnement ou autre je m'en remet a vos connaissance

tout en sachant que c'est pour jouer avec 2 acoustic

je vous remercie d'avance les gens :top:

Lien à poster
Partager sur d’autres sites

Je te conseil Layla, D'Eric Clapton.

C'est un morceau assez simple. La tablature est déjà sur le forum mais je t'en ai refais une avec l'accompagnement et l'arpège séparée.

 

Pour le rythme réfère toi à ce qui a déjà où écoute le morceau, il est assez simple à comprendre.

 

guitare 1 :

E-----------|----1-----------------------------1-----------------------------
B-----------|----3-----3----1--1---------------3----3----1--1----------------
G-----------|°---2-----3----0--0---------------2----3----0--0----------------
D--------0--|°---------3----2--2--0--------0--------3----2--2--0--------0----
A--0--3-----|-------3--1----3--3-----0--3--------3--1----3--3-----0--3-------
E-----------|-------------|------------------|---------|-------------------|-



E-----1-------------------------------1------------------------
B-----3-----3----1--1-----------------3-----3----1--1--3--5----
G-----2-----3----0--0-----------------2-----3----0--0--3--5----
D-----------3----2--2--0--------------------3----2--2--3--5----
A--------3--1----3--3-----0--3--0--------3--1----3--3--1--3----
E--------------|-------------------|-----------|-------------|-



E-------------------------------------------------------------------------
B-----5--5-----5--------4--4-----4--------5--5--5--7--------3--3-----3----
G-----4--4-----4--------5--5-----5--------4--4--5--7--------1--1-----1----
D-----6--6-----6--------4--4-----4--------6--6--5--7--------2--2-----2----
A--4--------4--------------------------4--------3--5--------2--2-----2----
E-----------------|--4--------4-----|-----------------|--0--------0-----|-


E---------------------------------------------------------------------------|--
B-----2--2-----4--4--------3--3-----3--------2--2-----4-----3--2------------|--
G-----2--2-----2--2--------1--1-----1--------2--2-----2-----1--2-----------°|--
D-----4--4-----4--4--------2--2-----2--------4--4-----4-----2--2--------0--°|--
A----(4)----2--------------2--2-----2--------------2--------2--0--0--3------|--
E--2-----------------|--0--------0-----|--2--------------|--0---------------|--

 

guitare 2:

 

E--|-----------------------------------------------------------------------------------------
B--|---2---2-2-2--0----------0-1------2---2-2-0--------------2--2--0--0----------------------
G--|°----------------1---1-----------------------0-----------------------0--0--0-------------
D--|°------------------4----------------------------4--2-4------------------------4-2-2-4----
A--|-----------------------------------------------------------------------------------------
E--|------------------------|-------|-----------------|-----|------------------------------|-



E------------------------------------------------------------------
B--2--2--2--0--0-----0---------------------------------------------
G-----------------2-------1--2---------0--0------------------------
D--------------------------------0-----------3--2--0-----0---------
A-----------------------------------------------------3------------
E----------------------|------------|-----------------------|----|-



E-----------------------------------------------------------------|--
B-----------------------------------------------------------------|--
G---0--0-------------------------0--0-----0--2--0----------------°|--
D---------3--2--0--3-----0-------------3-----------3--2---0------°|--
A---------------------3-------------------------------------------|--
E--------------------------|--|-------------------------|----|----|--

 

Voilà voilà :)

Lien à poster
Partager sur d’autres sites

Ah ouai layla c'est le top!!!!

 

Je te conseil aussi "The man who sold the world" de nirvana , normalement il joue la 2eme guitare en ajoutant une disto a sa Folk , mais ca le fait bien sans aussi!!! c'est assez simple et si tu y ajoute le chant c'est encore plus beau...

 

du coté de chez tryo , tu a aussi beaucoup de choix ;)

Lien à poster
Partager sur d’autres sites
  • 5 weeks later...

Je remonte le sujet bien qu'il ait déjà 1 mois d'ancienneté mais c'est pour la bonne cause.

 

Pour deux guitares, je te conseille aussi deux morceaux des Smashing Pumpkins : Mayonnaise et Soma.

 

Ca sonne très bien.

Lien à poster
Partager sur d’autres sites
  • 4 weeks later...

Layla et the man who sold the world sont des tops idées. Sinon, (soyant fidèle à notre cher Eric Clapton) il y a "Tears in heaven" et "Roméo and Juliet" de Dire Straits (mais là faut un accordage spécial, en G avec capo sur la 3e).

Lien à poster
Partager sur d’autres sites

Veuillez vous connecter pour commenter

Vous pourrez laisser un commentaire après vous êtes connecté.



Connectez-vous maintenant
×
×
  • Créer...